>
 >
Little Lies

Little Lies Guitar Tabs

Laura Marling - Little Lies chords, tabs, tablatures, lyrics

Guitar lessons | Add/correct | Request | Top 50 tabs Artists:  A B C D E F G H I J K L M N O P Q R S T U V W X Y Z 0-9

Little Lies Guitar Tabs – Laura Marling

CD, Sheet music, Poster

Do you like Little Lies? Share with your friends now
Tabs
Laura Marling

DGDGBbD
Capo 1

elements, hopefully when a record comes out all parts will be intelligible. It looks like a 
lot, but once you know the 5 basic riffs [verses, 3 fills, bridge], youíre set.

Order:
Intro
Verse 1
  Fill 1
Verse 2
  Fill 1
  Fill 2
Bridge 1
Verse 3
Verse 4
  Fill 1
Bridge 2
  Fill 3
Bridge 2
  Fill 3
  Fill 1

Intro
D -----------------------------------------------------------------|
Bb------5-4--2-4-2----5-4-2-4-2-0-2-0------------------------------|
G ------5-3--2-3-2----5-3-2-3-2-0-2-0----2-3-2-0-------------------|
D ----0-------------0-----------------0-1--------1-3-1-0-1-0--0-3--|
G ---0-------------0-----------------------------------------0---0-|
D -0-----------------------------------(1)-------------------------|

Verses 1 and 2
D ----------------|---------------------------------|
B ---5-4-2-4-2-0--|---5-4-2-4-2-0-2-0---------------|
G ---5-3-2-3-2-0--|---5-3-2-3-2-0-2-0----0-2-3-2-0--|
D --0-------------|--0-----------------1------------|
G -0--------------|-0-------------------------------|
D ----------------|-------------------(1)-----------|
 1. Yes, I am...      Yes, I am a master
 2. I wish that I had... I wish that I hadnít told you there

D -------------------|
Bb-------------------|
G -2--0---------0-3--|
D -------3--1--0---0-|
G -------------------|
D -------------------|
 1. I had you, bad man
 2. Where my kindness ends

D ----------------|------------------------------------------|
Bb---5-4-2-4-2-0--|---5-4-2-4-2-0-2-0------------------------|
G ---5-3-2-3-2-0--|---5-3-2-3-2-0-2-0--0-2-3-2-0-------------|
D --0-------------|--0----------------1----------1-3-1-0-1-0-|
G -0--------------|-0----------------------------------------|
D ----------------|------------------------------------------|
 1. Little lie...   Little lie caster
 2. I will take you home... I will take you home and then

D -------------------|
Bb-------------------|
G -2--0---------0-3--|
D -------3--1--0---0-|
G -------------------|
D -------------------|
 1. Bottom of my hand
 2. Our love spell would end

Fill 1
D -------------|---------------------|---------------------------|--------|
Bb----11--12---|----11-12-14-12-11---|----11-12-14-12-11-12-11---|-7-9-4--|
G ----11--12---|----11-12-14-12-11---|----11-12-14-12-11-12-11---|-7-7-0--|
D --0---0----0-|--0----------------0-|--0----------------------0-|--0-0-0-|
G -0-----------|-0-------------------|-0-------------------------|-----0--|
D -------------|---------------------|---------------------------|--------|

Fill 2
D -------------0--------3----1-0--0h1-p0------|
Bb-11----11-9---------------------------------|
G ---0------0----0---0----0----0--------0---0-|
D --0------0----0---0----0----0--------0---0--|
G -0-----0-----0---0----0----0----0-------0---|
D --------------------------------------------|

D -------------0--------3----1-0--0h1-p1------|
Bb-12----11-9---------------------------------|
G ---0------0----0---0----0----0--------0---0-|
D --0------0----0---0----0----0--------0---0--|
G -0-----0-----0---0----0----0----0-------0---|
D --------------------------------------------|

Bridge 1

D ------------------------------------------|
Bb------------------------------------------|
G ---0----0--0----0---0-0---0----0---0-0--0-|
D --0----0-------1----1-1---1---1----1-1--1-|    x2
G ------3---3-------------------------------|
D -5------------1----1----1----1----1----1--|
   You are new to me

D -------------------------------------------|
Bb-------------------------------------------|
G ---0-----0--0----0---0-0---0----0--0-0---0-|
D --0-----0-------3----3-3---3---3---3-3---3-|
G -------------------------------------------|
D -5-----3---3---1----1-----1---1---1-----1--|
   I canít seem to say

D ----------------------------------------|
Bb---------------------------------0------|
G ---0-----0--0----0---0-0---0----0-0-----|
D --0-----0-------3----3-3---3---3---3-3--|
G ------------------------------------0---|
D -5-----3---3---1----1-----1---1---1-----|
   I want you to stay

Verses 3
D ----------------|---------------------------------|
B ---5-4-2-4-2-0--|---5-4-2-4-2-0-2-0---------------|
G ---5-3-2-3-2-0--|---5-3-2-3-2-0-2-0----0-2-3-2-0--|
D --0-------------|--0-----------------1------------|
G -0--------------|-0-------------------------------|
D ----------------|-------------------(1)-----------|
 3. Yes, I am...      Yes, I am a master

D -------------------|
Bb-------------------|
G -2--0---------0-3--|
D -------3--1--0---0-|
G -------------------|
D -------------------|
 1. I had you, bad man

D ----------------|------------------------------------------|
Bb---5-4-2-4-2-0--|---5-4-2-4-2-0-2-0------------------------|
G ---5-3-2-3-2-0--|---5-3-2-3-2-0-2-0--0-2-3-2-0-------------|
D --0-------------|--0----------------1----------1-3-1-0-1-0-|
G -0--------------|-0----------------------------------------|
D ----------------|------------------------------------------|
 3. Little lie...   Little lie caster

Verse 4
D ----------------|------------------------------------------|
Bb---5-4-2-4-2-0--|---5-4-2-4-2-0-2-0------------------------|
G ---5-3-2-3-2-0--|---5-3-2-3-2-0-2-0--0-2-3-2-0-------------|
D --0-------------|--0----------------1----------1-3-1-0-1-0-|
G -0--------------|-0----------------------------------------|
D ----------------|------------------------------------------|
 4. They might know you best.. they might know you best and love you most

D ----------------|------------------------------------------|
Bb---5-4-2-4-2-0--|---5-4-2-4-2-0-2-0------------------------|
G ---5-3-2-3-2-0--|---5-3-2-3-2-0-2-0--0-2-3-2-0-------------|
D --0-------------|--0----------------1----------1-3-1-0-1-0-|
G -0--------------|-0----------------------------------------|
D ----------------|------------------------------------------|
 4. I would breathe you in... I would breathe you in and be your ghost

Bridge 2

D ----------------------------|
Bb----------------------------|
G ---0----0--0----0---0-0---0-|
D --0----0-------1----1-1---1-|  x4
G ------3---3-----------------|
D -5------------1----1----1---|
   I saw a lady dance yesterday
   She was easily swayed
   I cannot be tossed and turned in this way
   Iím not your tiny dancer

D -------------------------------------------|
Bb-------------------------------------------|
G ---0-----0--0----0---0-0---0----0--0-0---0-|
D --0-----0-------3----3-3---3---3---3-3---3-|
G -------------------------------------------|
D -5-----3---3---1----1-----1---1---1-----1--|
   I canít seem to say

D ----------------------------------------|
Bb---------------------------------0------|
G ---0-----0--0----0---0-0---0----0-0-----|
D --0-----0-------3----3-3---3---3---3-3--|
G ------------------------------------0---|
D -5-----3---3---1----1-----1---1---1-----|
   Iíd like you to stay

Fill 3
D -------------------------------|
Bb-12--9---11--7---9---5---7-5-4-|
G ---0---0---0---0---0---0-----0-| x2
D --0---0---0---0---0---0----0---|
G -0---0---0---0---0---0---0-----|
D -------------------------------|

Bridge 2

D ----------------------------|
Bb----------------------------|
G ---0----0--0----0---0-0---0-|
D --0----0-------1----1-1---1-|  x4
G ------3---3-----------------|
D -5------------1----1----1---|
   I saw a lady dance yesterday
   She was easily swayed
   I cannot be tossed and turned in this way
   Iím no oneís tiny dancer

D -------------------------------------------|
Bb-------------------------------------------|
G ---0-----0--0----0---0-0---0----0--0-0---0-|
D --0-----0-------3----3-3---3---3---3-3---3-|
G -------------------------------------------|
D -5-----3---3---1----1-----1---1---1-----1--|
   I canít seem to say

D ----------------------------------------|
Bb---------------------------------0------|
G ---0-----0--0----0---0-0---0----0-0-----|
D --0-----0-------3----3-3---3---3---3-3--|
G ------------------------------------0---|
D -5-----3---3---1----1-----1---1---1-----|
   Iíd like you to stay

Fill 3
D -------------------------------|
Bb-12--9---11--7---9---5---7-5-4-|
G ---0---0---0---0---0---0-----0-| x2
D --0---0---0---0---0---0----0---|
G -0---0---0---0---0---0---0-----|
D -------------------------------|

Fill 1
D -------------|---------------------|---------------------------|-------|
Bb----11--12---|----11-12-14-12-11---|----11-12-14-12-11-12-11---|-7--9--|
G ----11--12---|----11-12-14-12-11---|----11-12-14-12-11-12-11---|-7--7--|
D --0---0----0-|--0----------------0-|--0----------------------0-|--0----|
G -0-----------|-0-------------------|-0-------------------------|-------|
D -------------|---------------------|---------------------------|-------|





Comments


Popular Laura Marling tabs & chords
Blackberry Stone Chords
Candlelight 1 Chords
New Romantic 7 Chords
Old Stone 1 Chords
Travel Light Chords
Born To Love Tabs
Night After Night 1 Tabs
Take The Night Off 1 Tabs
London Town Ukulele
What He Wrote Ukulele


Song lyrics



↑ Back to top | Tablatures and chords are parodies/interpretations of the original songs. You may use it for private study, scholarship, research or language learning purposes only
© 2014 AZChords.com Contact us | Privacy policy | DMCA | Add/correct tabs | Request tabs | Top 50 tabs