>
 >
Hope In The Air

Hope In The Air Guitar Tabs

Laura Marling - Hope In The Air chords, tabs, tablatures, lyrics

Guitar lessons | Add/correct | Request | Top 50 tabs Artists:  A B C D E F G H I J K L M N O P Q R S T U V W X Y Z 0-9

Hope In The Air Guitar Tabs – Laura Marling

CD, Sheet music, Poster

Do you like Hope In The Air? Share with your friends now
Tabs
Hope in the Air
Laura Marling

Capo 4
Tuning: D A D F A D

Since many of the underlying notes are difficult to hear in this recording, I’ve tabbed 
gist of the song – hopefully I can put together a more complete version when the album 
out in March.  Thanks!

Intro/ Fill
D ----------------------------------------------------------|
A ----------------------------------------------------------|
F --------0--------0-0------0---------0-0---4--2--5--4--2---|
D --------7-7------7-7------7-7-------7-7---0--0--0--0--0---|
A ------7---7----7--------7---7-----7-----------------------|
D ----0--------0--------0---------0---------3--2--5--3--2---|

Verse
D ---------------------------|------------------------------|
A ---------------------------|------------------------------|
F ----4--2---0-------0-------|-4--2--0--------0-------------|
D ----0--0-------0-------0---|-0--0------0--------0---------|
A -------------0-------0-----|---------0--------0-----------|
D ----3--2---0----0--0-----0-|-3--2--0-----0--0-----0-------|
1. There is a man that I know// Seventeen years he never spoke
2. I listened with all of my might// But was scared by the look in his eye

D -----------------------------------------|-----------------|
A -----------------------------------------|-----------------|
F ----0--0--0---0--0--0--0--------0--------|--4--2--5--4--2--|
D ----0--0--0---0--0--0------0---------0---|--0--0--0--0--0--| to fill
A ----1--1--1---1--1--1----0---------0-----|-----------------|
D -----------------------0-----0--0------0-|--3--2--5--3--2--|
1. Guess he had nothing to say// he opened his mouth on judgment day
2. Like he’d already lost the fight// and there was no hope ever in sight

Chorus
D ---------------|--------------------|
A ---------------|--------------------|
F ----0------0---|---4--2--5--4--2----|
D ----0------0---|---0--0--0--0--0----| to fill
A ----1------0---|--------------------|
D -----------0---|---3--2--5--3--2----|
[Letting the first two chords ring]
No hope in the air, no hope in the water//
Not even for me, your life serving daughter

Bridge
D ------------|----------|--------|-----------------|
A ------------|----------|--------|-----------------|
F ----2----4--|--5----4--|--5--4--|--4--2--5--4--2--|
D ----0----0--|--0----0--|--0--0--|--0--0--0--0--0--|  to fill
A ----0----0--|--0----0--|--0--0--|-----------------|
D ----2-------|--5----3--|--5--3--|--3--2--5--3--2--|
(Pick like above in ‘Guess he had’; pulsing in 6/8 time)
Why fear death, be scared of living//
Our hearts are small and ever thinning/
And there is no hope ever of winning//
So why fear death, be scared of living

Bridge 2
D ------------|----------|--------------------|--------|
A ------------|----------|--------------------|--------|
F ----2----0--|--0----0--|--4--2--5--4--2--0--|--4--2--|
D ----0----0--|--0----0--|--0--0--0--0--0--0--|--0--0--| to fill
A ----0----0--|--1----0--|-----------------0--|--------|
D ----2----0--|-------0--|--3--2--5--3--2--0--|--3--2--|
A friend is a friend forever//
And a good one will never leave, ever//
But you’ve been south [?] and what rolls off your mouth//
You will never understand, ever

Bridge 3
D -------------|-----------|----------|--------|
A -------------|-----------|----------|--------|
F -------------|-----------|--0----0--|--4--2--|
D -------------|-----------|--0----0--|--0--0--| to fill
A -------------|-----------|--1----0--|--------|
D ----3--2--0--|--3--2--0--|-------0--|--3--2--|
Speak minds handed down to you//
By the lies handed down by your truth//
Your angels that dance at your will//
Will mask your scrambling youth

Chorus
D ---------------|--------------------|
A ---------------|--------------------|
F ----0------0---|---4--2--5--4--2----|
D ----0------0---|---0--0--0--0--0----| to fill
A ----1------0---|--------------------|
D -----------0---|---3--2--5--3--2----|
[Now strumming]
There’s hope in the air, there’s hope in the water//
Not sadly not me, your life serving daughter

Bridge 4
D --------------|--------------------|----------|--------------------|
A --------------|--------------------|----------|--------------------|
F --------------|-----------------0--|--0----0--|--4--2--5--4--2--0--|  to
D --------------|-----------------0--|--0----0--|--0--0--0--0--0--0--| fill
A --------------|-----------------0--|--1----0--|-----------------0--|
D --3--2--5--3--|--3--2--5--3--2--0--|-------0--|--3--2--5--3--2--0--|
Oh, pick up your rope, Lord, sling it to me//
If we are to battle, I must not be weak//
And give us your strength, World and your food and your water//
Oh I am your savior, your life serving daughter

Chorus
D ---------------|--------------------|
A ---------------|--------------------|
F ----0------0---|---4--2--5--4--2----|
D ----0------0---|---0--0--0--0--0----| to fill/ end on open Dm
A ----1------0---|--------------------|
D -----------0---|---3--2--5--3--2----|
No hope in the air, no hope in the water//
Not even for me, your life serving daughter

LYRICS:
There is a man that I know
For seventeen years he never spoke
Guess he had nothing to say
He opened his mouth on judgment day

I listened with all of my might
But was scared by the look in his eyes
Like he'd already lost the fight
And there was no hope ever in sight

No hope in the air,
No hope in the water,
Not even for me,
Your life serving daughter

Why fear death?
Be scared of living
Our hearts are small and ever thinning
There is no hope ever of winning
So why fear death?
Be scared of living
I have seen men provoked
I have watched lives revoked
And I looked at my life and I choked
And from there, no more ever I have spoke

But I can't give up that quick
My life is a candle and a wick
You can't put it out but you can't break it down
In the end, we are waiting to be lit

There's hope in the air
There's hope in the water
But no hope for me, your life serving daughter
A friend is a friend forever
And a good one will never leave, never
But you’ve never been south and what rolls of your mouth
You will never understand, ever

Speak minds handed down to you
By the lies handed down by your truth
Your angels that dance at your will
Will mask your scrambling youth

I forgave you your shortcomings
And ignored your childish behavior
Laid a kiss on your head
And before I left said,
"Stay away from fleeting favor"
There's hope in the air
There's hope in the water
But sadly not me, your life serving daughter

Oh, pick up your rope, Lord
Sling it to me
If we are to battle, I must not be weak.
And give us your strength, World
and your food and your water
Oh I am your savior,
Your life serving daughter

There's hope in the air
There's hope in the water
But sadly not me, your life serving daughter
There's hope in the air
There's hope in the water
But no hope for me, your life serving daughter





Comments


Popular Laura Marling tabs & chords
Goodbye England Covered In Snow Chords
New Romantic 1 Chords
To Be A Woman Chords
Devils Resting Place Tabs
Shine Tabs
Failure Ukulele
London Town Ukulele
The Wrote And The Writ Ukulele
Typical Ukulele
What He Wrote Ukulele


Song lyrics



↑ Back to top | Tablatures and chords are parodies/interpretations of the original songs. You may use it for private study, scholarship, research or language learning purposes only
© 2014 AZChords.com Contact us | Privacy policy | DMCA | Add/correct tabs | Request tabs | Top 50 tabs