» » »

Bathroom Gurgle Bass tabs (ver.3)

Artists:  A B C D E F G H I J K L M N O P Q R S T U V W X Y Z # 

Bathroom Gurgle Bass tabs (ver.3)

Late Of The Pier
Rating:
5/5 (1 vote)

Hard to play? Try these video lessons and learn fast.
                ----------------------------------------------------------------------------
			     Bathroom Gurgle - Late of the pier
----------------------------------------------------------------------------


Tuning: Normal (EADG)

Right this may look wrong at first but is the way Faley plays it. 


And ~ means let the string ring. NOT BEND



verse goes like this



G|-4-2---0----4-2---0----4-2---0----4-2-7-------------------------------|
D|----------------------------------------------------------------------|
A|----------------------------------------------------------------------|
E|--3-2-2-0-0--3-2-2-0-0--3-2-2-0-0--3-2-2h3-0-0------------------------|


Then it goes......


G|-------------------------------------------------------------------------|
D|-------------------------------------------------------------------------|
A|-------------------------------------------------------------------------|
E|-9~--3~--0~--7~/9~\3~/5~-------------------------------------------------|

Then back to verse etc etc...

Eventually it come to this..("I was in love....")

G|-------------------------------------------------------------------------|
D|---------------------------7--9------------------------------------------|
A|-------------------------------------------------------------------------|
E|-8~--7~--0~---8~--7~--0~--5-/7-8~--7~-0~--12121010-8~--7~-0~-------------|


Now the fun part. may not look it but it is. (so put your hands on your...)
if you don't think it is right look at some of the live vids, or even the promo and you 
see him playing this, or you could just listen to the song. (listen to the demo version 
a slightly slower version)
Also add in various other slides if it sounds good.

G|-------------------------------------------------------------------------|
D|-------------------------------------------------------------------------|
A|-------------------------------------------------------------------------|
E|-0-1212-1212-910910\5755\--0-1212-1212-9109105755\-----------------------|


Then it goes back into the "i was in love..." bit and into the fun part again. After it 
straight into this, quite hard to hear the bass  and quite fast picking. but its in 
and goes like....

G|--------------12-------14-----------------------------------------------|
D|-----14------------------------12---------------------------------------|
A|----------1010--10/1212--12---------------------------------------------|
E|/1212--12------------------1010--10/------------------------------------|

Now its the ending which again is this below. But the difference is that at right at the 
a few open E string's are randomly hit, (listen to CD)

G|-------------------------------------------------------------------------|
D|-------------------------------------------------------------------------|
A|-------------------------------------------------------------------------|
E|-8~--7~--0~---8~--7~--0~--8~--7~-0~--1210-8~--7~-0~----------------------|

| ~  let ring
| /  slide up
| \  slide down
| h  hammer-on
| p  pull-off
| +  harmonic
| x  Mute note
===============================================================================
            
Hard to play? Try these video lessons and learn fast. | Correct




comments powered by Disqus
↑ Back to top | Tablatures and chords are parodies/interpretations of the original songs. You may use it for private study, scholarship, research or language learning purposes only