» » »

Bathroom Gurgle Bass tabs (ver.1)

Artists:  A B C D E F G H I J K L M N O P Q R S T U V W X Y Z # 

Bathroom Gurgle Bass tabs (ver.1)

Late Of The Pier
Rating:
4/5 (6 votes)

Hard to play? Try these video lessons and learn fast.
                Verse

|----------------    -------------------|
|----------------    -------------------|
|---------------- x3 -------------------|
|-7-3-5-2-2-3-00-    -7-3-5-2-223-00----|

Pre-Chorus

|-----------------|
|-----------------|
|-----------------|
|-9-3-0---7-9-3-5-|

Verse x2

Pre-Chorus

Verse x2

Chorus

|----------------------------9-7--------|
|-----------------7-9-------------------|
|---------------------------7-5---------|
|-8-7-0---8-7-0--5-7--8-7-0------8-7-0--|

Bridge 1

|--------------------    --------------------|
|---2-----2-0-0------    ---2-----2-0-0------|
|----------2-2-2020-- x7 ----------2-2-2020--|
|-0---0-0----------4-    -0---0-0----------3-|

Chorus

Bridge 2

|--------------------|
|---2-----2-0-0------|
|----------2-2-2020--| x8
|-0---0-0----------4-|

|-------7--9-------|
|---9--5-57-77--7--|
|-7--7--------5----| x4
|------------------|

|-------7---9------    -------7---9------|
|---9-5--57--7--7--    ---9-55-577-7--7--|
|-7--7--------5--5- x7 -77-7--------55-5-|
|------------------    ------------------|

Chorus
            
Hard to play? Try these video lessons and learn fast. | Correct




comments powered by Disqus
↑ Back to top | Tablatures and chords are parodies/interpretations of the original songs. You may use it for private study, scholarship, research or language learning purposes only