» » »

Last Winter, Don't Forget To Write Tabs (ver.2)

Artists:  A B C D E F G H I J K L M N O P Q R S T U V W X Y Z # 

Don't Forget To Write Tabs (ver.2)

Last Winter Tabs
 Rating:
4/5 (4 votes)
Don't Forget To Write lessons Tabs too difficult? Try these video lessons and learn fast
1
                -------------------------------------------------------------------------------
                             Don't Forget to Write - Last Winter
-------------------------------------------------------------------------------


Ok here's some info you might be intrested. If you own the CD this song
 comes from Transmission: Skyline then you'll see that the bassist name
 is John Powell and yes that is me. I was also the writer and guitar
 player for this song on the CD. So you could call this the "Offical Tabs"
 for this song.


Tunning This is a tunning I came up with that we called "Dad Dad" for
 obvious reasons. It's just a basic Drop D Alternate. And is played in 3/4
time (for those who don't know what that means when u count your beats it's
1 2 3 1 2 3 1 2 3 1 2 3)

E-D
B-A
G-D
D-D
A-A
E-D

Verse

D|-0-0-0-0-0-0-0-0-0-0-0-0-0-0-0-0-0-0-0-0-0-0-0-0-0-0-0-0-0-0-0-0-0-0-0-0-|
A|-0-0-0-0-0-0-0-0-0-0-0-0-0-0-0-0-0-0-0-0-0-0-0-0-0-0-0-0-0-0-0-0-0-0-0-0-|
D|-0-0-0-0-0-0-0-0-0-0-0-0-0-0-0-0-0-0-0-0-0-0-0-0-0-0-0-0-0-0-0-0-0-0-0-0-|
D|-2-2-2-2-2-2-2-2-2-2-2-2-7-7-7-7-7-7-7-7-7-7-7-7-4-4-4-4-4-4-4-4-4-4-4-4-|
A|-4-4-4-4-4-4-4-4-4-4-4-4-5-5-5-5-5-5-5-5-5-5-5-5-2-2-2-2-2-2-2-2-2-2-2-2-|
D|-0-0-0-0-0-0-0-0-0-0-0-0-5-5-5-5-5-5-5-5-5-5-5-5-0-0-0-0-0-0-0-0-0-0-0-0-|
  Every....................your picture............the promises...........

D|-0-0-0-0-0-0-0-0-0-0-0-0-|
A|-0-0-0-0-0-0-0-0-0-0-0-0-|
D|-0-0-0-0-0-0-0-0-0-0-0-0-|
D|-7-7-7-7-7-7-7-7-7-7-7-7-|
A|-5-5-5-5-5-5-5-5-5-5-5-5-|
D|-5-5-5-5-5-5-5-5-5-5-5-5-|
  not forgotten

D|-0-0-0-0-0-0-0-0-0-0-0-0-0-0-0-0-0-0-0-0-0-0-0-0-0-0-0-0-0-0-0-0-0-0-0-0-|
A|-0-0-0-0-0-0-0-0-0-0-0-0-0-0-0-0-0-0-0-0-0-0-0-0-0-0-0-0-0-0-0-0-0-0-0-0-|
D|-0-0-0-0-0-0-0-0-0-0-0-0-0-0-0-0-0-0-0-0-0-0-0-0-0-0-0-0-0-0-0-0-0-0-0-0-|
D|-2-2-2-2-2-2-2-2-2-2-2-2-7-7-7-7-7-7-7-7-7-7-7-7-4-4-4-4-4-4-4-4-4-4-4-4-|
A|-4-4-4-4-4-4-4-4-4-4-4-4-5-5-5-5-5-5-5-5-5-5-5-5-2-2-2-2-2-2-2-2-2-2-2-2-|
D|-0-0-0-0-0-0-0-0-0-0-0-0-5-5-5-5-5-5-5-5-5-5-5-5-0-0-0-0-0-0-0-0-0-0-0-0-|
   So turn.................We could................In these...............

D|-0-0-0-0-0-0-0-0-0-0-0-0-|
A|-0-0-0-0-0-0-0-0-0-0-0-0-|
D|-0-0-0-0-0-0-0-0-0-0-0-0-|
D|-7-7-7-7-7-7-7-7-7-7-7-7-|
A|-5-5-5-5-5-5-5-5-5-5-5-5-|
D|-5-5-5-5-5-5-5-5-5-5-5-5-|
  you bring

Pre Chorus

D|-0-0-0-0-0-0-0-0-0-0-0-0-0-0-0-0-0-0-0-0-0-0-0-0-0-0-0-0-0-0-0-0-0-0-0-0-|
A|-0-0-0-0-0-0-0-0-0-0-0-0-0-0-0-0-0-0-0-0-0-0-0-0-0-0-0-0-0-0-0-0-0-0-0-0-|
D|-0-0-0-0-0-0-0-0-0-0-0-0-0-0-0-0-0-0-0-0-0-0-0-0-0-0-0-0-0-0-0-0-0-0-0-0-|
D|-7-7-7-7-7-7-7-7-7-7-7-7-2-2-2-2-2-2-5-5-5-5-5-5-7-7-7-7-7-7-7-7-7-7-7-7-|
A|-4-4-4-4-4-4-5-5-5-5-5-5-2-2-2-2-2-2-5-5-5-5-5-5-4-4-4-4-4-4-5-5-5-5-5-5-|
D|-4-4-4-4-4-4-5-5-5-5-5-5-2-2-2-2-2-2-5-5-5-5-5-5-4-4-4-4-4-4-5-5-5-5-5-5-|
  So you.......but what....I'm .......and ashamed..So go.......to get.....

D|-0-0-0-0-0-0-0-0-0-0-0-0-|
A|-0-0-0-0-0-0-0-0-0-0-0-0-|
D|-0-0-0-0-0-0-0-0-0-0-0-0-|
D|-2-2-2-2-2-2-5-5-5-5-5-5-|
A|_2-2-2-2-2-2-5-5-5-5-5-5-|
D|-2-2-2-2-2-2-5-5-5-5-5-5-|
  I know......way..........

D|-0-0-0-0-0-0-0-0-0-0-0-0-0-0-0-0-0-0-0-0-0-0-|
A|-0-0-0-0-0-0-0-0-0-0-0-0-0-0-0-0-0-0-0-0-0-0-|
D|-0-0-0-0-0-0-0-0-0-0-0-0-0-0-0-0-0-0-0-0-0-0-|
D|-7-7-7-7-7-7-7-7-7-7-7-7-7-7-7-7-7-7-7-7-7-7-|
A|-4-4-4-4-4-5-5-5-5-5-5-4-4-4-4-4-5-5-5-5-5-5-|
D|-4-4-4-4-4-5-5-5-5-5-5-4-4-4-4-4-5-5-5-5-5-5-|
  you'll ....way........ you'll....way.........


Chorus

D|-0-0-0-0-0-0-0-0-0-0-0-0-0-0-0-0-0-0-0-0-0-0-0-0-0-0-0-0-0-0-0-0-0-0-0-0-|
A|-0-0-0-0-0-0-0-0-0-0-0-0-0-0-0-0-0-0-0-0-0-0-0-0-0-0-0-0-0-0-0-0-0-0-0-0-|
D|-0-0-0-0-0-0-0-0-0-0-0-0-0-0-0-0-0-0-0-0-0-0-0-0-0-0-0-0-0-0-0-0-0-0-0-0-|
D|-7-7-7-7-7-7-7-7-7-7-7-7-4-4-4-4-4-4-4-4-4-4-4-4-7-7-7-7-7-7-7-7-7-7-7-7-|
A|-5-5-5-5-5-5-5-5-5-5-5-5-2-2-2-2-2-2-2-2-2-2-2-2-5-5-5-5-5-5-5-5-5-5-5-5-|
D|-0-0-0-0-0-0-0-0-0-0-0-0-0-0-0-0-0-0-0-0-0-0-0-0-5-5-5-5-5-5-5-5-5-5-5-5-|
   I'm barely .............alive                   though.................

D|-0-0-0-0-0-0-0-0-0-0-0-0-|
A|-0-0-0-0-0-0-0-0-0-0-0-0-|
D|-0-0-0-0-0-0-0-0-0-0-0-0-|
D|-2-2-2-4-4-4-5-5-5-7-7-7-|
A|-2-2-2-4-4-4-5-5-5-7-7-7-|
D|-2-2-2-4-4-4-5-5-5-7-7-7-|
  your..forever..mind

D|-0-0-0-0-0-0-0-0-0-0-0-0-0-0-0-0-0-0-0-0-0-0-0-0-0-0-0-0-0-0-0-0-0-0-0-0-|
A|-0-0-0-0-0-0-0-0-0-0-0-0-0-0-0-0-0-0-0-0-0-0-0-0-0-0-0-0-0-0-0-0-0-0-0-0-|
D|-0-0-0-0-0-0-0-0-0-0-0-0-0-0-0-0-0-0-0-0-0-0-0-0-0-0-0-0-0-0-0-0-0-0-0-0-|
D|-7-7-7-7-7-7-7-7-7-7-7-7-7-7-7-7-7-7-7-7-7-7-7-7-7-7-7-7-7-7-7-7-7-7-7-7-|
A|-5-5-5-5-5-5-5-5-5-5-5-5-4-4-4-4-4-4-4-4-4-4-4-4-5-5-5-5-5-5-5-5-5-5-5-5-|
D|-0-0-0-0-0-0-0-0-0-0-0-0-4-4-4-4-4-4-4-4-4-4-4-4-5-5-5-5-5-5-5-5-5-5-5-5-|
  When....................Don't forget to write    Your...................

D|-0-0-0-0-0-0-0-0-0-0-0-0-|
A|-0-0-0-0-0-0-0-0-0-0-0-0-|
D|-0-0-0-0-0-0-0-0-0-0-0-0-|
D|-2-2-2-4-4-4-5-5-5-7-7-7-|
A|-2-2-2-4-4-4-5-5-5-7-7-7-|
D|-2-2-2-4-4-4-5-5-5-7-7-7-|
  you...change.life

Bridge:

D|-0-0-0-0-0---0-0-0-0-0-0-0-0-0-0-0-0-0-0-0-0-0-|
A|-0-0-0-0-0---0-0-0-0-0-0-0-0-0-0-0-0-0-0-0-0-0-|
D|-0-0-0-0-0---0-0-0-0-0-0-0-0-0-0-0-0-0-0-0-0-0-|
D|-4-4-4-4-4---7-7-7-7-7-7-5-5-5-5-5-2-2-2-2-2-2-|
A|-2-2-2-2-2---5-5-5-5-5-5-5-5-5-5-5-2-2-2-2-2-2-|
D|-0-0-0-0-0---0-0-0-0-0-5-5-5-5-5-5-2-2-2-2-2-2-|


D|-0-0-0-0-0---0-0-0-0-0-0-0-0-0-0-0-0-0-0-0-0-0-|
A|-0-0-0-0-0---0-0-0-0-0-0-0-0-0-0-0-0-0-0-0-0-0-|
D|-0-0-0-0-0---0-0-0-0-0-0-0-0-0-0-0-0-0-0-0-0-0-|
D|-4-4-4-4-4---7-7-7-7-7-7-5-5-5-5-5-2-2-2-2-2-2-|
A|-2-2-2-2-2---5-5-5-5-5-5-5-5-5-5-5-2-2-2-2-2-2-|
D|-0-0-0-0-0---0-0-0-0-0-5-5-5-5-5-5-2-2-2-2-2-2-|


Outtro:
D|-0-0-0-0-0-0-0-0-0-0-0-0-0-0-0-0-0-0-0-0-0-0-0-0-0-0-0-0-0-0-0-0-0-0-0-0-|
A|-0-0-0-0-0-0-0-0-0-0-0-0-0-0-0-0-0-0-0-0-0-0-0-0-0-0-0-0-0-0-0-0-0-0-0-0-|
D|-0-0-0-0-0-0-0-0-0-0-0-0-0-0-0-0-0-0-0-0-0-0-0-0-0-0-0-0-0-0-0-0-0-0-0-0-|
D|-2-2-2-4-4-4-5-5-5-7-7-7-2-2-2-4-4-4-5-5-5-7-7-7-2-2-2-4-4-4-5-5-5-7-7-7-|
A|-2-2-2-4-4-4-5-5-5-7-7-7-2-2-2-4-4-4-5-5-5-7-7-7-2-2-2-4-4-4-5-5-5-7-7-7-|
D|-2-2-2-4-4-4-5-5-5-7-7-7-2-2-2-4-4-4-5-5-5-7-7-7-2-2-2-4-4-4-5-5-5-7-7-7-|


D|-0-0-0-0-0-0-0-0-0-0-0-0-|
A|-0-0-0-0-0-0-0-0-0-0-0-0-|
D|-0-0-0-0-0-0-0-0-0-0-0-0-|
D|-2-2-2-4-4-4-5-5-5-7-7-7-|
A|-2-2-2-4-4-4-5-5-5-7-7-7-|
D|-2-2-2-4-4-4-5-5-5-7-7-7-|


Song order

Verse 1
Chorus
Verse 2
Chorus
Bridge
Chorus
Outtro
            
Submit corrections

comments powered by Disqus
↑ Back to top | Last Winter Tabs for Don't Forget To Write. Lyrics for acoustic guitar and electric guitar. 1 Tablatures and chords are parodies/interpretations of the original songs. You may use it for private study, scholarship, research or language learning purposes only