» » »

Don't Forget To Write Tabs (ver.1)

Artists:  A B C D E F G H I J K L M N O P Q R S T U V W X Y Z # 

Don't Forget To Write Tabs (ver.1)

Last Winter
Rating:
5/5 (2 votes)

Hard to play? Try these video lessons and learn fast.
                
This is the lead guitar to the song. I don't have time to tell you the Piano part in
the background. This sounds about right I'd say. I kinda think it sounds better with a
capo on the first fret, but do what you want.

Tuning:
Eb - D
Bb - D
Gb - A
Db - D
Ab - A
Eb - D

Verse:

D-0-0-0-0-----0-0-0-0-----0-0-0-0-----0-0-0-0-----0-0-0-0------|
D-0-0-0-0-----0-0-0-0-----0-0-0-0-----0-0-0-0-----0-0-0-0------|
A-0-0-0-0-----0-0-0-0-----0-0-0-0-----0-0-0-0-----0-0-0-0------|
D-0-0-0-0--X4-0-0-0-0--X4-0-0-0-0--X3-0-0-0-0--X1-0-0-0-0--X4--| Repeat Verse
A-0-0-0-0-----5-5-5-5-----9-9-9-9-----7-7-7-7-----5-5-5-5------|
D-0-0-0-0-----5-5-5-5-----9-9-9-9-----7-7-7-7-----5-5-5-5------|
  ^           ^           ^           ^           ^
"Everyday....Picture......Promises....I...........Forgotten"

Pre-Chorus:

D-0-0-0-0-----0-0-0-0-----0-0-0-0-----0-0-0-0------------------|
D-0-0-0-0-----0-0-0-0-----0-0-0-0-----0-0-0-0------------------|
A-0-0-0-0-----0-0-0-0-----0-0-0-0-----0-0-0-0------------------|
D-0-0-0-0--X2-0-0-0-0--X2-0-0-0-0--X2-0-0-0-0--X2--------------| Repeat Verse
A-4-4-4-4-----5-5-5-5-----2-2-2-2-----5-5-5-5------------------|
D-4-4-4-4-----5-5-5-5-----2-2-2-2-----5-5-5-5------------------|
  ^           ^           ^           ^
 "So go find..get you ....know you'll..way...."


D-0-0-0-0-----0-0-0-0-----0-0-0-0-----0-0-0-0-----0-0-0-0------|
D-0-0-0-0-----0-0-0-0-----0-0-0-0-----0-0-0-0-----0-0-0-0------|
A-0-0-0-0-----0-0-0-0-----0-0-0-0-----0-0-0-0-----0-0-0-0------|
D-0-0-0-0--X2-0-0-0-0--X2-0-0-0-0--X2-0-0-0-0--X1-0-0-0-0--X1--|
A-4-4-4-4-----5-5-5-5-----4-4-4-4-----5-5-5-5-----7-7-7-7------|
D-4-4-4-4-----5-5-5-5-----4-4-4-4-----5-5-5-5-----7-7-7-7------|
  ^                       ^
 "You'll find.............You'll find....................."

Chorus:

D-0--0--0--0-----0-0-0-0-----0-0-0-0-----0-0-0-0-----0-0-0-0-----0-0-0-0-----0-0-0-0------|
D-0--0--0--0-----0-0-0-0-----0-0-0-0-----0-0-0-0-----0-0-0-0-----0-0-0-0-----0-0-0-0------|
A-0--0--0--0-----0-0-0-0-----0-0-0-0-----0-0-0-0-----0-0-0-0-----0-0-0-0-----0-0-0-0------|
D-0--0--0--0--X4-0-0-0-0--X4-0-0-0-0--X4-0-0-0-0--X1-0-0-0-0--X1-0-0-0-0--X1-0-0-0-0--X1--|
A-12-12-12-12----4-4-4-4-----5-5-5-5-----2-2-2-2-----4-4-4-4-----5-5-5-5-----7-7-7-7------|
D-12-12-12-12----4-4-4-4-----5-5-5-5-----2-2-2-2-----4-4-4-4-----5-5-5-5-----7-7-7-7------|
  ^              ^           ^           ^           ^           ^
 "I'm barely.....alive.......words may...always......forever....mind......
REPEAT TABS ^^^

Repeat Verse.
Repeat Chorus.

Bridge:

D-0-0-0-0-----0-0-0-0-----0-0-0-0-----0-0-0-0-----0-0-0-0------|
D-0-0-0-0-----0-0-0-0-----0-0-0-0-----0-0-0-0-----0-0-0-0------|
A-0-0-0-0-----0-0-0-0-----0-0-0-0-----0-0-0-0-----0-0-0-0------|
D-0-0-0-0--X4-0-0-0-0--X2-0-0-0-0--X2-0-0-0-0--X1-0-0-0-0--X1--|
A-4-4-4-4-----5-5-5-5-----4-4-4-4-----5-5-5-5-----7-7-7-7------|
D-4-4-4-4-----5-5-5-5-----4-4-4-4-----5-5-5-5-----7-7-7-7------|

Repeat Chorus.

Ending:

D-0-0-0-0-----0-0-0-0-----0-0-0-0-----0-0-0-0-----|
D-0-0-0-0-----0-0-0-0-----0-0-0-0-----0-0-0-0-----|
A-0-0-0-0-----0-0-0-0-----0-0-0-0-----0-0-0-0-----|
D-0-0-0-0--X1-0-0-0-0--X1-0-0-0-0--X1-0-0-0-0--X1-| Repeat 4 Times.
A-2-2-2-2-----4-4-4-4-----5-5-5-5-----7-7-7-7-----|
D-2-2-2-2-----4-4-4-4-----5-5-5-5-----7-7-7-7-----|

End on DADADD X5.

Thank You.
            
Hard to play? Try these video lessons and learn fast. | Correct




comments powered by Disqus
↑ Back to top | Tablatures and chords are parodies/interpretations of the original songs. You may use it for private study, scholarship, research or language learning purposes only