» » »

La Ruda Salska, Du Rififi Chez Les Branques Bass tabs (ver.3)

Artists:  A B C D E F G H I J K L M N O P Q R S T U V W X Y Z # 

Du Rififi Chez Les Branques Bass tabs (ver.3)

La Ruda Salska Tabs
 Rating:
4/5 (4 votes)
Du Rififi Chez Les Branques lessons Tabs too difficult? Try these video lessons and learn fast
                La Ruda Salska
Du Rififi Chez Les Branques
Bass
By Herisong

Riff1
G:----------0---------------
D:--------3---3-0-----------
A:-3--2-3-------------3-0---
E:------------------------3-

Riff2
G:-------------------------------------
D:-------------0000-----------03330222-
A:-3--0-3---0--------5--0-5--0---------
E:---3-----3-----------3----3----------

Riff3
G:-------------------------------------------
D:-------------------------------------5-----
A:-3---3----0---0-2-0-3-----3----0-0-----0-3-
E:-------3-0------------------3-0------------

G:-------------------------------------------
D:----------------3---------------0-3-3-3-2--
A:-3---3----0---0---0-3-----3---0------------
E:-------3-0------------------3--------------

Riff4
G:----------------------------
D:--------------5-7-5-7-5-7---
A:--------------------------7-
E:----------------------------

Riff5
G:-----------------------------
D:-----------------------------
A:-0-------------0-0-----------
E:---3-0---3-0-------3-0---3-0-

Riff5

G:-------------------------0-0---
D:-----------------------------0-
A:-5---0-3---5--3-5----0-3-------
E:---3---------------3-----------

Structure:
Riff1: x12
Riff2: x2
Riff3: x1
Riff4: x1
Riff5: x3
Riff6: x4
Riff1: x12
Riff2: x2
Riff3: x1
Riff4: x1
Riff5: x3
Riff6: x4
Riff5: x9
            
Submit corrections

comments powered by Disqus
↑ Back to top | La Ruda Salska Bass for Du Rififi Chez Les Branques. Lyrics for acoustic guitar and electric guitar. Tablatures and chords are parodies/interpretations of the original songs. You may use it for private study, scholarship, research or language learning purposes only