» » »

La Ruda Salska, Du Rififi Chez Les Branques Bass tabs (ver.1)

Artists:  A B C D E F G H I J K L M N O P Q R S T U V W X Y Z # 

Du Rififi Chez Les Branques Bass tabs (ver.1)

La Ruda Salska Tabs
 Rating:
4/5 (4 votes)
Du Rififi Chez Les Branques lessons Tabs too difficult? Try these video lessons and learn fast
1
                Riff 1
G--------------------
D-----3-530---0------
A-3-23---------3--0--
E------------------3-

Riff 2
G-------------------------------
D-------------------------------
A-3--03--0-3333-5--05--0888-777-
E---3---3---------3---3---------

Riff 3
G-----------------------------------------------------------------
D-----------------------------------------------------------------
A-3---03-0----05-333---3-0----05-3--33--0---05-333---3-0--0-2-4-4-
E---33------33--3---333-----33--3-----33--33--3---333-------------

Riff 4
G--------------020202----
D---------------------40-
A-0----0----0------------
E----4----4--------------

Riff 5
G-----------------
D-----------------
A-0-------00------
E---30-30---30-30-

Riff 6
G------------------
D---------------2--
A-5--03-53-5703--3-
E---3--------------

And the order is : 
Riff 1 X 12
Riff 2 X 2
Riff 3 X 1
Riff 4 X 1
Riff 5 X 3
Riff 6 X 4
Riff 1 X 12
Riff 2 X 2
Riff 3 X 1
Riff 4 X 1
Riff 5 X 3
Riff 6 X 4
Riff 5 X 3
Riff 5 X 3
Riff 5 X 3
            
Submit corrections

comments powered by Disqus
↑ Back to top | La Ruda Salska Bass for Du Rififi Chez Les Branques. Lyrics for acoustic guitar and electric guitar. 1 Tablatures and chords are parodies/interpretations of the original songs. You may use it for private study, scholarship, research or language learning purposes only