» » »

Elegi Tabs (ver.2)

Artists:  A B C D E F G H I J K L M N O P Q R S T U V W X Y Z # 

Elegi Tabs (ver.2)

Lars Winnerback
Rating:
5/5 (3 votes)

Hard to play? Try these video lessons and learn fast.
                Elegi
Lars Winnerbäck

Capo 4e bandet


[Intro]
  Am               Fmaj7          C               G       
 e|----------0-----|--------0-----|---------0-----|-------|-0-------0-------0-----|
B|-----0h1------1-|-----1------1-|-----1h3-----3-|-----3-|-----0-------0-------0-|
G|---2--------2---|---2------2---|-----------0---|---0---|---5-------5-----5-----|
D|-2--------------|-3------------|---2-----------|-------|-----------------------|
A|----------------|--------------|-3-------------|-------|-----------------------|
E|----------------|--------------|---------------|-3-----|-------5-------5-------|

  Fmaj7                C                G       
 e|-----0--------0-----|----------0-----|-------|-0-------0-------0-----|
 B|-0h1-----1--------1-|-----1h3------3-|-----3-|-----0-------0-------0-|
 G|-------2--------2---|------------0---|---0---|---5-------5-----5-----|
 D|-----3------3-------|---2------------|-------|-----------------------|
 A|--------------------|-3--------------|-------|-----------------------|
 E|--------------------|----------------|-3-----|-------5-------5-------|

  Fmaj7                C                G       
 e|-----0--------3-----|-0--------0-----|----------3-------------3-----|
 B|-0h1-----1--------1-|-----1--------1-|-----0h1------1-----1-------1-|
 G|-------2--------2---|---0--------0---|---0--------0-----0-------0---|
 D|-----3------3-------|----------------|------------------------------|
 A|--------------------|-3------3-------|------------------------------|
 E|--------------------|----------------|-3--------------3-----3-------|

 Am                 
 e|----------0-----|
 B|-----0h1------1-|
 G|---2--------2---|
 D|-2--------------|
 A|----------------|
 E|----------------|

 [Vers 1]
  Fmaj7          C                G               Am 
 e|--------0-----|----------0-----|----------0-----|--------0-----|
 B|-----1------1-|-----1h3------3-|-----3--------3-|-----1------1-|
 G|---2------2---|------------0---|---0--------0---|---2------2---|
 D|-3------------|---2------------|----------------|-2------------|
 A|--------------|-3--------------|----------------|--------------|
 E|--------------|----------------|-3------3-------|--------------|
  Du ser andra......

  
  Fmaj7          C                G                Am
 e|--------0-----|----------0-----|----------0-----|--------0-----|
 B|-----1------1-|-----1h3------3-|-----3--------3-|-----1------1-|
 G|---2------2---|------------0---|---0--------0---|---2------2---|
 D|-3------------|---2------------|----------------|-2------------|
 A|--------------|-3--------------|----------------|--------------|
 E|--------------|----------------|-3------3-------|--------------|
   [mellanspel (endast i första versen)]

  Fmaj7          C                G                Am 
 e|--------0-----|----------0-----|----------0-----|--------0-----|
 B|-----1------1-|-----1h3------3-|-----3--------3-|-----1------1-|
 G|---2------2---|------------0---|---0--------0---|---2------2---|
 D|-3------------|---2------------|----------------|-2------------|
 A|--------------|-3--------------|----------------|--------------|
 E|--------------|----------------|-3------3-------|--------------|    
  Jag sitter ensam här...
  
  Fmaj7          C                G                Am
 e|--------0-----|----------0-----|----------0-----|----------0-----|
 B|-----1------1-|-----1h3------3-|-----3--------3-|-----0h1------1-|
 G|---2------2---|------------0---|---0--------0---|---2--------2---|
 D|-3------------|---2------------|----------------|-2--------------|
 A|--------------|-3--------------|----------------|----------------|
 E|--------------|----------------|-3------3-------|----------------|
   [mellanspel (endast i första versen)]

  Fmaj7          C                G                Am
 e|--------0-----|----------0-----|----------0-----|--------0-----|
 B|-----1------1-|-----1h3------3-|-----3--------3-|-----1------1-|
 G|---2------2---|------------0---|---0--------0---|---2------2---|
 D|-3------------|---2------------|----------------|-2------------|
 A|--------------|-3--------------|----------------|--------------|
 E|--------------|----------------|-3------3-------|--------------|
  Med dig på andra sidan...

  Fmaj7          C                G                Am
 e|--------0-----|----------0-----|----------0-----|--------0-----|
 B|-----1------1-|-----1h3------3-|-----3--------3-|-----1------1-|
 G|---2------2---|------------0---|---0--------0---|---2------2---|
 D|-3------------|---2------------|----------------|-2------------|
 A|--------------|-3--------------|----------------|--------------|
 E|--------------|----------------|-3------3-------|--------------|
 
    
  [refräng]
  Fmaj7            Dm                          G7
 e|----------------|--------1------------1-----|-1--------1-----1-------1----|
B|-----1--------1-|-----3------3-----3------3-|-----0--------0-----0-------0|
G|---2--------0---|---2------2-----2------2---|---0--------0-----0-------0--|
D|-3------0h2-----|-0------------0------------|-----------------------------|
A|----------------|---------------------------|-----------------------------|
E|----------------|---------------------------|-3------3-------3-----3------|
                     Vi skulle klara....
 
  C                C/B              Am               G
 e|-0--------0-----|-3--------3-----|-0--------0-----|-3--------3-----|
 B|-----1--------1-|-----0--------0-|-----1--------1-|-----0--------0-|
 G|---0--------0---|---0--------0---|---2--------2---|---0--------0---|
 D|----------------|----------------|----------------|----------------|
 A|-3------3-------|-2------2-------|-0------0-------|----------------|
 E|----------------|----------------|----------------|-3------3-------|

  C               Fmaj7          C                E7               Am
 e|-0-------0-----|-0------0-----|-0--------0-----|----------0-----|-0------0-----|
B|-----1-------1-|-----1------1-|-----0h1------1-|-----3--------3-|-----1------1-|
G|---0-------0---|---2------2---|---0--------0---|---1--------1---|---2------2---|
D|---------------|-3------------|----------------|----------------|-2------------|
A|-3-----3-------|--------------|-3--------------|-2------2-------|--------------|
E|---------------|--------------|----------------|----------------|--------------|


  [Vers 2]
  Fmaj7          C                G                Am 
 e|--------0-----|----------0-----|----------0-----|--------0-----|
 B|-----1------1-|-----1h3------3-|-----3--------3-|-----1------1-|
 G|---2------2---|------------0---|---0--------0---|---2------2---|
 D|-3------------|---2------------|----------------|-2------------|
 A|--------------|-3--------------|----------------|--------------|
 E|--------------|----------------|-3------3-------|--------------|
  Det är en storm på väg inatt...

  Fmaj7          C                G                Am 
 e|--------0-----|----------0-----|----------0-----|--------0-----|
 B|-----1------1-|-----1h3------3-|-----3--------3-|-----1------1-|
 G|---2------2---|------------0---|---0--------0---|---2------2---|
 D|-3------------|---2------------|----------------|-2------------|
 A|--------------|-3--------------|----------------|--------------|
 E|--------------|----------------|-3------3-------|--------------|    

  Fmaj7          C                G                Am
 e|--------0-----|----------0-----|----------0-----|----------0-----|
 B|-----1------1-|-----1h3------3-|-----3--------3-|-----0h1------1-|
 G|---2------2---|------------0---|---0--------0---|---2--------2---|
 D|-3------------|---2------------|----------------|-2--------------|
 A|--------------|-3--------------|----------------|----------------|
 E|--------------|----------------|-3------3-------|----------------|
   Du ska stå naken framför sanningen...

  Fmaj7          C                G                Am
 e|--------0-----|----------0-----|----------0-----|--------0-----|
 B|-----1------1-|-----1h3------3-|-----3--------3-|-----1------1-|
 G|---2------2---|------------0---|---0--------0---|---2------2---|
 D|-3------------|---2------------|----------------|-2------------|
 A|--------------|-3--------------|----------------|--------------|
 E|--------------|----------------|-3------3-------|--------------|


Am Fmaj7 C E7 spelas mellan verserna lite här och där, 
ibland är det G istället för E7, ibland C istället för Am.

-----------------------------------------------------------------------------
Den här tabulaturen är den LW använder sig av för det mesta. 
Resterande verser spelas på ungefär samma sätt och jag kanske 
kompletterar dom senare. Men just nu är det här allt jag har att ge.
-----------------------------------------------------------------------------
            
Hard to play? Try these video lessons and learn fast. | Correct




comments powered by Disqus
↑ Back to top | Tablatures and chords are parodies/interpretations of the original songs. You may use it for private study, scholarship, research or language learning purposes only