» » »

Elegi Tabs (ver.1)

Artists:  A B C D E F G H I J K L M N O P Q R S T U V W X Y Z # 

Elegi Tabs (ver.1)

Lars Winnerback
Rating:
4/5 (7 votes)

Hard to play? Try these video lessons and learn fast.
                Elegi by Lars Winnerbäck.

But it wasn't picked as the original song and because of that sounded like something else.
I have therefore picked out a new version which according to me sounds a bit more like 
the original one.
I've also picked out the tab for the second guitar!


Guitar 1: (capo on 4th fret)

Verse:
  Am              Fmaj7           C               G
e|-0-------0-----|-0-------0-----|-0-------0-----|-0-------0-----|
B|-----1-------1-|-----1-------1-|-----3-------3-|-----3-------3-|
G|---2-------2---|---2-------2---|---0-------0---|---0-------0---|
D|-2-----2-------|-3-----3-------|-------2-------|-------0-------|
A|---------------|---------------|-3-------------|---------------|
E|---------------|---------------|---------------|-3-------------|

  Am              Fmaj7           C               E7
e|-0-------0-----|-0-------0-----|-0-------0-----|-0-------0-----|
B|-----1-------1-|-----1-------1-|-----3-------3-|-----3-------3-|
G|---2-------2---|---2-------2---|---0-------0---|---1-------1---|
D|-2-----2-------|-3-----3-------|-------2-------|-------0-------|
A|---------------|---------------|-3-------------|-2-------------|
E|---------------|---------------|---------------|---------------|

Chorus:
  Fmaj7         Dm                            G7
e|-0-----0-----|-1-------1-----1-------1-----|-1-------1-----1-------1----|
B|-----1-----1-|-----3-------3-----3-------3-|-----0-------0-----0-------0|
G|---2-----0---|---2-------2-----2-------2---|---0-------0-----0-------0--|
D|-3-----2-----|-0-----0-------0-----0-------|----------------------------|
A|-------------|-----------------------------|----------------------------|
E|-------------|-----------------------------|-3-----3-------3-----3------|

  C               C/B             Am              G
e|-0-------0-----|-3-------3-----|-0-------0-----|-3-------3-----|
B|-----1-------1-|-----0-------0-|-----1-------1-|-----0-------0-|
G|---0-------0---|---0-------0---|---2-------2---|---0-------0---|
D|---------------|---------------|-2-----2-------|---------------|
A|-3-----3-------|-2-----2-------|---------------|---------------|
E|---------------|---------------|---------------|-3-----3-------|

  C               Fmaj7           C               G
e|-0-------0-----|-0-------0-----|-0-------0-----|-0-------0-----|
B|-----1-------1-|-----1-------1-|-----3-------3-|-----3-------3-|
G|---0-------0---|---2-------2---|---0-------0---|---0-------0---|
D|---------------|-3-----3-------|-------2-------|-------0-------|
A|-3-----3-------|---------------|-3-------------|---------------|
E|---------------|---------------|---------------|-3-------------|


Guitar 2: (no capo)

Intro:
e|-----------------------------------|
B|-----------------------------------|
G|-----------------------------------|
D|-----------------------------------|
A|-----2-2h4-2-2h4-2-2h4-2-----------|
E|-2h4---------------------4h2p0-2-0-|

e|-----------------------------|
B|-----------------------------|
G|-----------------------------|
D|-----------------------------|
A|-2h4-2-2h4-2-2h4-2-----------|
E|-------------------4h2p0-2-0-| x3

e|-----|
B|-----|
G|-----|
D|-----|
A|-2h4-|
E|-----|

Chorus 1:
e|-----------------------------------------------------------------|
B|-----------------------------------------------------------------|
G|-----------------------------------------------------------------|
D|-----------------------------------------------------------------|
A|-----2-2-2-2h4-2---2-------------2h4-2-2h4-2---2-------------2h4-|
E|-2h4-------------4---4h2p0-4h2-0-------------4---4h2p0-4h2-0-----|
Ska jag anförtro åt dig....

Chorus 2:
e|-------------------------------------------------------------|
B|-------------------------------------------------------------|
G|-------------------------------------------------------------|
D|-------------------------------------------------------------|
A|-----2-2-2-2h4-2---2-------------2h4-2-2h4-2---2-------------|
E|-2h4-------------4---4h2p0-4h2-0-------------4---4h2p0-4h2-0-|
Ska jag anförtro åt dig....

Outro:
e|-------------------------------------------------------------|
B|-------------------------------------------------------------|
G|-------------------------------------------------------------|
D|-------------------------------------------------------------|
A|-----2-2-2-2h4-2---2-------------2h4-2-2h4-2---2-------------|
E|-2h4-------------4---4h2p0-4h2-0-------------4---4h2p0-4h2-0-|
Ska jag anförtro åt dig....

e|---------------------------------------------------------0-|
B|--------------------------------------------------------0--|
G|-------------------------------------------------------1---|
D|------------------------------------------------------2----|
A|-2h4-2-2h4-2---2------------2h4-2-2h4-2---2----------2-----|
E|-------------4---4h2p0-2-0--------------4---4h2p0-2-0------|


Chords: (only for picking, with capo on 4th fret.)

Am  Fmaj7  C  G  x4

Am     Fmaj7            C              G              Am  Fmaj7  C  G
Du ser andra halvan av solen när den sjunker i väst.
Am         Fmaj7         C              G               Am  Fmaj7  C  G
Jag sitter ensam här och undrar var vi hamnar härnäst.
Am         Fmaj7        C              G             Am
Med dig på andra sidan jorden får jag tid till ingenting,
       Fmaj7          C        G             Am
medan natten fäller blåkalla skuggor här omkring.

Fmaj7

Dm                       G7                            C
Vi skulle klara vad som helst, vi skulle aldrig säga nej.
           C/B          Am           G           C    Fmaj7  C  G
Och vad du anförtror åt mig, ska jag anförtro åt dig.

Am  Fmaj7  C  E7

Am          Fmaj7         C         G          Am
Det är en storm på väg i natt, rannsaka och bekänn.
      Fmaj7         C              G         Am
Guds son ska komma nedstigen från himmelen igen.
            Fmaj7         C              G             Am
Du ska stå naken framför sanningen, och jordens alla kval,
      Fmaj7         C              G
han ska pröva din styrka, han ska testa din moral.

Am  Fmaj7  C  E7

Am       Fmaj7          C         G             Am
Vi står tysta framför skälet där sommaren tar sl*t,
     Fmaj7          C           G           Am
som tonårsbarn på hemväg efter gårdagens debut.
          Fmaj7          C                G           Am
Nu skulle inget bli som förr, vi var i en annan division,
          Fmaj7        C             G          Am
vi kunde höra höstens mörka vatten brusa under bron.

Fmaj7

Dm                       G7                            C
Vi skulle klara vad som helst, vi skulle aldrig säga nej.
           C/B          Am           G           C    Fmaj7  C  G
Och vad du anförtror åt mig, ska jag anförtro åt dig.

Am  Fmaj7  C  E7

Am        Fmaj7             C                  G
Och alldeles nyss fick jag lyssna till ditt skratt,
Am        Fmaj7      C             G                 Am
och du berätta att du sakna mig i natt, det gör jag med.
Am         Fmaj7          C            G             Am
Det är så tyst nere från gatan som det aldrig annars är,
                Fmaj7          C                 G
det är som att natten här har sett allting och stilla sjunger med.

Am  Fmaj7  C  E7

Am     Fmaj7       C              G            Am
En elegi för alla sorger den här hösten handla om,
        Fmaj7         C                G               Am
för en mor som sjukna in, och för ett barn som aldrig kom.
      Fmaj7       C               G          Am
För skuggan över gårn där aldrig solen lyste in,
       Fmaj7         C               G
för en ork som inte fanns, du sakna min, jag sakna din.

Am  Fmaj7  C  E7

Am      Fmaj7          C             G           Am
För en tystnad mellan väggarna som skar genom cement,
    Fmaj7      C              G             Am
två ögonpar i tomhet från September till Advent.
        Fmaj7             C            G           Am
För en man som gick till jobbet som om inget hade hänt,
             Fmaj7         C               G              Am
och för en kvinna som sa: "Allting är förstört, allt är bränt."

Fmaj7  C  E7

Am     Fmaj7       C           G            Am
En elegi för alla vägar som vi inte vandrat än.
        Fmaj7        C             G         Am
För en tid som bara går, och aldrig kommer igen.

Fmaj7

Dm                       G7                            C
Vi skulle klara vad som helst, vi skulle aldrig säga nej.
           C/B          Am           G           C    Fmaj7  C  G
Och vad du anförtror åt mig, ska jag anförtro åt dig.

Am  Fmaj7  C  E7
Am  Fmaj7  C  G  x2
C
            
Hard to play? Try these video lessons and learn fast. | Correct




comments powered by Disqus
↑ Back to top | Tablatures and chords are parodies/interpretations of the original songs. You may use it for private study, scholarship, research or language learning purposes only