>
 >
Wind Of Gold

Wind Of Gold Bass Tabs

L Arc En Ciel - Wind Of Gold chords, tabs, tablatures, lyrics

Guitar lessons | Add/correct | Request | Top 50 tabs Artists:  A B C D E F G H I J K L M N O P Q R S T U V W X Y Z 0-9

Wind Of Gold Bass Tabs – L Arc En Ciel

CD, Sheet music, Poster

Do you like Wind Of Gold? Share with your friends now
Bass Tabs
INTRO
      11
|-------------|
|-----*-------|  3/4
|-------------| <---
|---------9-9-|

|-----------------|-----------------|-----------------|---------6-------|
|-----------------|-----------------|-----------------|-----------------|
|-----------------|-----------------|-----------------|-----------------|
|-----9---\-------|-----------------|-------------7---|-----7-------9---|

|-----------------|-----------------|-----------------|---------6---\---|
|-----------------|-----------------|-----------------|-----------------|
|-----------------|-----------------|-----------------|-6---------------|
|-----9---\-------|-----------------|-------------7---|-----7-----------|

VERSE

|-----------------|-----------------|-----------------|---------6---\---|
|-----------------|---------6---\---|-----------------|-----------------|
|-4---\-------4-4-|-2---4-----------|---------------4-|-2---4-----------|
|-----------------|-----------------|-2-/(4)----------|-----------------|

|-----------------|-----------------|-----------------|---------6-\-----|
|-----------------|-----------------|-----------------|-----------------|
|-2-/(6)------0---|-2---0---4/(7)---|-----7-------6-6-|-7h8-------------|
|-----------------|-----------------|-----------------|-----7-----------|

|-----------------|-----------------|-----------------|-----------------|
|-----------------|---------6---\---|-----------------|-----------------|
|-4-\---------4-4-|-2---4-----------|-----------------|-----------------|
|-----------------|-----------------|-2-/-(4)-------0-|-2---0---2/(5)---|

|-----------------|-----------------|-----------------|---------6-\-----|
|-----------------|-----------------|-----------------|-----------------|
|-----0-------0-0-|-----0-----------|-----------------|-6-6-------------|
|-----------------|-4-------5/(7)---|-----7-------7-7-|-----7-----------|

|-----------------|-----------------|-----------------|---------6---\---|
|-----------------|---------6---\---|-----------------|-----------------|
|-4---\-------4-4-|-2---4-----------|---------------4-|-2---4-----------|
|-----------------|-----------------|-2-/(4)----------|-----------------|

|-----------------|-----------------|-----------------|---------6-\-----|
|-----------------|-----------------|-----------------|-----------------|
|-2-/(6)------0---|-2---0---4/(7)---|-----7-------6-6-|-7h8-------------|
|-----------------|-----------------|-----------------|-----7-----------|

|-----------------|-----------------|-----------------|-----------------|
|-----------------|---------6---\---|-----------------|-----------------|
|-4-\---------4-4-|-2---4-----------|-----------------|-----------------|
|-----------------|-----------------|-2-/-(4)-------0-|-2---0---2/(5)---|

|-----------------|-----------------|-----------------|---------|
|-----------------|-----------------|-----------------|---------|  2/4
|-----0-------0-0-|-----0-----------|-----------------|-7p6-----| <---
|-----------------|-4-------5/(7)---|-----7-------7-7-|-----7---|

CHORUS

|-----------------|-----------------|-----------------|-----------------|
|-------------4---|-6---------------|-----------------|-----------------|
|-4-----7-7-------|---4---4-----4---|-------------4---|-6---------------|
|-----------------|---------7-------|-4-----7-7-------|---4---4-2---4---|

|-----------------|-----------------|-----------------|-----------------|
|-----------------|-----------------|-2/4---2-2---1---|-2-1---1-2-1-----|
|-------------2---|-4---------------|-----------------|-------------2---|
|-2-----0-0-------|---2---2-0---2---|-----------------|-----------------|

|-----------------|-----------------|-----------------|-----------------|
|-------------4---|-6---------------|-----------------|-----------------|
|-4-----7-7-------|---4---4---------|-------------4---|-6-4---4-2-------|
|-----------------|---------7---5---|-4-----7-7-------|-------------4---|

|-----------------|-----------------|-----------------|-----------------|
|-----------------|-----------------|-----------------|-----------------|
|-------------2---|-4-2---2-0-------|-------2-2-4/6---|-----7---6-------|
|-2-----0-0-------|-------------2---|-4---------------|-------------7---|

|-6---\---|
|---------|  2/4
|---------| <---
|---------|

VERSE

|-----------------|-----------------|-----------------|---------6---\---|
|-----------------|---------6---\---|-----------------|-----------------|
|-4---\-------4-4-|-2---4-----------|---------------4-|-2---4-----------|
|-----------------|-----------------|-2-/(4)----------|-----------------|

|-----------------|-----------------|-----------------|---------6-\-----|
|-----------------|-----------------|-----------------|-----------------|
|-2-/(6)------0-0-|-2---0---4/(7)---|-----7-------6-6-|-7h8-------------|
|-----------------|-----------------|-----------------|-----7-----------|

|-----------------|-----------------|-----------------|-----------------|
|-----------------|---------6---\---|-----------------|-----------------|
|-4-\---------4-4-|-2---4-----------|-----------------|-----------------|
|-----------------|-----------------|-2-/-(4)-------0-|-2---0---2/(5)---|

|-----------------|-----------------|-----------------|---------6-\-----|
|-----------------|-----------------|-----------------|-----------------|
|-----0-------0-0-|-----0-----------|-----------------|-6-6-------------|
|-----------------|-4-------5/(7)---|-----7-------7-7-|-----7-----------|

|-----------------|-----------------|-----------------|---------6---\---|
|-----------------|---------6---\---|-----------------|-----------------|
|-4---\-------4-4-|-2---4-----------|---------------4-|-2---4-----------|
|-----------------|-----------------|-2-/(4)----------|-----------------|

|-----------------|-----------------|-----------------|---------6-\-----|
|-----------------|-----------------|-----------------|-----------------|
|-2-/(6)------0-0-|-2---0---4/(7)---|-----7-------6-6-|-7h8-------------|
|-----------------|-----------------|-----------------|-----7-----------|

|-----------------|-----------------|-----------------|-----------------|
|-----------------|---------6---\---|-----------------|-----------------|
|-4-\---------4-4-|-2---4-----------|-----------------|-----------------|
|-----------------|-----------------|-2-/-(4)-------0-|-2---0---2/(5)---|

|-----------------|-----------------|-----------------|---------|
|-----------------|-----------------|-----------------|---------|  2/4
|-----0-------0-0-|-----0-----------|-----------------|-7p6-----| <---
|-----------------|-4-------5/(7)---|-----7-------7-7-|-----7---|

CHORUS

|-----------------|-----------------|-----------------|-----------------|
|-------------4---|-6---------------|-----------------|-----------------|
|-4-----7-7-------|---4---4-----4---|-------------4---|-6---------------|
|-----------------|---------7-------|-4-----7-7-------|---4---4-2---4---|

|-----------------|-----------------|-----------------|-----------------|
|-----------------|-----------------|-2/4---2-2---1---|-2-1---1-2-1-----|
|-------------2---|-4---------------|-----------------|-------------2---|
|-2-----0-0-------|---2---2-0---2---|-----------------|-----------------|

|-----------------|-----------------|-----------------|-----------------|
|-------------4---|-6---------------|-----------------|-----------------|
|-4-----7-7-------|---4---4---------|-------------4---|-6-------0-------|
|-----------------|---------7---5---|-4-----7-7-------|---4---4-----4---|

|-----------------|-----------------|-----------------|-----------------|
|-----------------|-----------------|-4/6-------------|-----------------|
|-------------2---|-4---------------|-------7-7-6-----|-7-6---6-7-6-----|
|-2-----0-0-------|---2---2-0---2---|-----------------|-------------5-\-|

SOLO

|-------------4---|-2-----1-1---2---|-------------4---|-2-----1-1---2---|
|*------2-2-------|-----------------|-----------------|-----------------|
|*0---------------|-----------------|-------7-0-------|-----------------|
|-----------------|-----------------|-4-/-------------|-----------------|

|-----------------|-----------------|-----------------|-----------------||
|-------------4---|-2-----1-1---2---|-------------4---|-2-----1-1---2--*||  3x
|-------2-2-------|-----------------|-------2---------|----------------*|| <--
|-0---------------|-----------------|-0-------0-------|-----------------||

|-------------4---|-2-----1-1---2---|-------------4---|-2-----1-1---2---|
|-------2-2-------|-----------------|-----------------|-----------------|
|-0---------------|-----------------|-------7-0-------|-----------------|
|-----------------|-----------------|-4-/-------------|-----------------|

|-----------------|-----------------|-2/4---2-2---1---|---2---1-1-------|
|-------------4---|-2-----1-1---2---|-----------------|-------------2---|
|-------2-2-------|-----------------|-----------------|-----------------|
|-0---------------|-----------------|-----------------|-----------------|

PRE-CHORUS

|-----------------|-----------------|-----------------|-----------------|
|-----------------|-----------------|-----------------|-----------------|
|-----------------|---------4-/-----|-9---------------|---------9-\-----|
|-2---------------|-----------------|-----------------|-----------------|

|-----------------|-----------------|-----------------|-----------------|
|-----------------|---------2-/-----|-6-----------\---|-----------------|
|-----------------|-----------------|-----------------|-----------------|
|-4---------------|-----------------|-----------------|-----------------|

CHORUS

|-----------------|-----------------|-----------------|-----------------|
|*------------4-/-|-6---------------|-----------------|-----------------|
|*4-----7-7-------|---4---4-----4---|-------------4---|-6---------------|
|-----------------|---------7-------|-4-----7-7-------|---4---4-2---4---|

|-----------------|-----------------|-----------------|-----------------||
|-----------------|-----------------|-2/4---2-2---1---|-2-1---1-2-1----*||  3x
|-------0-0---2-/-|-4-2---2-0-------|-----------------|-------------2--*|| <--
|-2---------------|-------------2---|-----------------|-----------------||

|-----------------|-----------------|-----------------|-----------------|
|-------------4-/-|-6---------------|-----------------|-----------------|
|-4-----7-7-------|---4---4-----4---|-------------4---|-6---------------|
|-----------------|---------7-------|-4-----7-7-------|---4---4-2---4---|

|-----------------|-----------------|-----------------|-----------------|
|-----------------|-----------------|-4/6-------------|-----------------|
|-------0-0---2-/-|-4-2---2-0-------|-------7-7-6-----|-----7---6---\---|
|-2---------------|-------------2---|-----------------|-----------------|

ENDING

|-----------------||
|*---------------*|| 19x
|*---------------*||
|-----------------||

|-----|
|-----|  1/4
|-2-/-| <---
|-----|

|-----------------|-----------------|-----------------|-----------------|
|-----------------|-----------------|-----------------|-----------------|
|-(7)-\---0---0---|-0---0---2---2---|-2---2---4---4---|-4---4---4---4---|
|-----------------|-----------------|-----------------|-----------------|

|-----------------|-----------------|-----------------|-----------------|
|-----------------|-----------------|-----------------|-----------------|
|-4---2---0---0---|-0---0---2---2---|-2---2---4---4---|-4---4---4---4---|
|-----------------|-----------------|-----------------|-----------------|

|-----------------|-----------------|-----------------||
|-----------------|-----------------|-----------------||
|-4---2-----------|-----------------|-----------------||
|---------2---2---|-2---2---4---4---|-4---4-----------||





Comments


Popular L Arc En Ciel tabs & chords
Blurry Eyes Bass Tabs
Cureless Bass Tabs
Dive To Blue Bass Tabs
Heavens Drive 1 Bass Tabs
Daybreaks Bell Chords
Honey Chords
Horizon Chords
Loreley Chords
Lost Heaven Chords
Daybreaks Bell Tabs


Song lyrics



↑ Back to top | Tablatures and chords are parodies/interpretations of the original songs. You may use it for private study, scholarship, research or language learning purposes only
© 2014 AZChords.com Contact us | Privacy policy | DMCA | Add/correct tabs | Request tabs | Top 50 tabs