>
 >
Perfect Blue Ken Part

Perfect Blue Ken Part Guitar Tabs

L Arc En Ciel - Perfect Blue Ken Part chords, tabs, tablatures, lyrics

Guitar lessons | Add/correct | Request | Top 50 tabs Artists:  A B C D E F G H I J K L M N O P Q R S T U V W X Y Z 0-9

Perfect Blue Ken Part Guitar Tabs – L Arc En Ciel

CD, Sheet music, Poster

Do you like Perfect Blue Ken Part? Share with your friends now
Tabs
add me to yahoo messenger if you want some
larc tabs


E||--8----------------|--10------13----------8--|------------------|
B||--8----------------|--9-------------12----8--|------------------|
G||--9----------------|--10------------------9--|------------------|
D||-------------------|-------------------------|------------------|
A||-------------------|-------------------------|------------------|
E||-------------------|-------------------------|------------------|

------15--13--15--16----13--|--15--15--13--13--12--12--13/-15--|
------13----------------13--|----------------------------------|
----------------------------|----------------------------------|
----------------------------|----------------------------------|
----------------------------|----------------------------------|
----------------------------|----------------------------------|

--15/-16----18----16----15/16-|--15----------------|--1----1--1----1--1--1--|
------------------------------|--------------------|--3----3--3----3--3--3--|
------------------------------|--------------------|--1----1--1----1--1--1--|
------------------------------|--------------------|--3----3--3----3--3--3--|
------------------------------|--------------------|------------------------|
------------------------------|--------------------|------------------------|

--0----0--0----0--0--0--|--1----1--1----1--1--1--|--0----0--0----0--0--0--|
--1----1--1----1--1--1--|--3----3--3----3--3--3--|--1----1--1----1--1--1--|
--0----0--0----0--0--0--|--1----1--1----1--1--1--|--0----0--0----0--0--0--|
--2----2--2----2--2--2--|--3----3--3----3--3--3--|--2----2--2----2--2--2--|
--3----3--3----3--3--3--|------------------------|--3----3--3----3--3--3--|
------------------------|------------------------|------------------------|

--1----1--1----1--1--1--|--0----0--0----0--0--0--|--2----2--2----2--2--2--|
--3----3--3----3--3--3--|--1----1--1----1--1--1--|--3----3--3----3--3--3--|
--1----1--1----1--1--1--|--2----2--2----2--2--2--|--2----2--2----2--2--2--|
--3----3--3----3--3--3--|--2----2--2----2--2--2--|--0----0--0----0--0--0--|
------------------------|--0----0--0----0--0--0--|------------------------|
------------------------|------------------------|------------------------|

--1----1--1----1--1--3--|----3--3--3--3--------|--0----0--0----0--0--0--|
--1----1--1----1--1--0--|----0--0--0--0--------|--1----1--1----1--1--1--|
--2----2--2----2--2--0--|----0--0--0--0--------|--0----0--0----0--0--0--|
--3----3--3----3--3--0--|----0--0--0--0--------|--2----2--2----2--2--2--|
--3----3--3----3--3--2--|----2--2--2--2--------|--3----3--3----3--3--3--|
--1----1--1----1--1--3--|----3--3--3--3--------|------------------------|

--1----1--1----1--1--1--|--0----0--0----0--0--0--|--1----1--1----1--1--1--|
--3----3--3----3--3--3--|--1----1--1----1--1--1--|--3----3--3----3--3--3--|
--1----1--1----1--1--1--|--0----0--0----0--0--0--|--1----1--1----1--1--1--|
--3----3--3----3--3--3--|--2----2--2----2--2--2--|--3----3--3----3--3--3--|
------------------------|--3----3--3----3--3--3--|------------------------|
------------------------|------------------------|------------------------|

--0----0--0----0--0--0--|--2----2--2----2--2--2--|--1----1--1----1-----4--|
--1----1--1----1--1--1--|--3----3--3----3--3--3--|--1----1--1----1-----4--|
--2----2--2----2--2--2--|--2----2--2----2--2--2--|--2----2--2----2-----5--|
--2----2--2----2--2--2--|--0----0--0----0--0--0--|--3----3--3----3--x--6--|
--0----0--0----0--0--0--|------------------------|--3----3--3----3--x--6--|
------------------------|------------------------|--1----1--1----1--x--4--|

----4----1----1--1----|-----------3--------------|--------7-----------------|
----4----3----3--3----|-----5--------5-----5-----|--9--------9-----9-----9--|
----5----3----3--3----|--5-----5--------5-----5--|-----9--------9-----9-----|
----6----3----3--3----|--------------------------|--------------------------|
----6----1----1--1----|--------------------------|--------------------------|
----4-----------------|--------------------------|--------------------------|

--------------8------------------|--11----------10----------10------|
------10---------10------10--13--|------13----------12--------------|
--10------10---------10------13--|----------13----------12----------|
---------------------------------|------------------------------12/-|
---------------------------------|----------------------------------|
---------------------------------|----------------------------------|

-----------3--------------|-----------7---------------|
-----5--------5-----5-----|-----9--------9-----9------|
--5-----5--------5-----5/-|--9-----9--------9-----10--|
--------------------------|---------------------------|
--------------------------|---------------------------|
--------------------------|---------------------------|

----------8----------8------11--|----------11------10----------10--|
--10---------10-----------------|--13------------------12----------|
------10---------10-----10------|------13------13----------12------|
--------------------------------|----------------------------------|
--------------------------------|----------------------------------|
--------------------------------|----------------------------------|

--15--15--13--13--12--12--13/-15--|--15/-16----18----16----15/16-|
----------------------------------|------------------------------|
----------------------------------|------------------------------|
----------------------------------|------------------------------|
----------------------------------|------------------------------|
----------------------------------|------------------------------|

--15--15--13--13--12--12--13/-15--|--15/-16/---18----16/-------|
----------------------------------|------------------------12--|
----------------------------------|----------------------------|
----------------------------------|----------------------------|
----------------------------------|----------------------------|
----------------------------------|----------------------------|

--------------------|------------------|--0----0--0----0--0--0--|
--13----------------|------------------|--1----1--1----1--1--1--|
--------------------|------------------|--0----0--0----0--0--0--|
--------------------|------------------|--2----2--2----2--2--2--|
--------------------|------------------|--3----3--3----3--3--3--|
--------------------|------------------|------------------------|

--1----1--1----1--1--1--|--0----0--0----0--0--0--|--2----2--2----2--2--2--|
--3----3--3----3--3--3--|--1----1--1----1--1--1--|--3----3--3----3--3--3--|
--1----1--1----1--1--1--|--2----2--2----2--2--2--|--2----2--2----2--2--2--|
--3----3--3----3--3--3--|--2----2--2----2--2--2--|--0----0--0----0--0--0--|
------------------------|--0----0--0----0--0--0--|------------------------|
------------------------|------------------------|------------------------|

--1----1--1----1--1--3--|----3--3--3--3--------|--0----0--0----0--0--0--|
--1----1--1----1--1--0--|----0--0--0--0--------|--1----1--1----1--1--1--|
--2----2--2----2--2--0--|----0--0--0--0--------|--0----0--0----0--0--0--|
--3----3--3----3--3--0--|----0--0--0--0--------|--2----2--2----2--2--2--|
--3----3--3----3--3--2--|----2--2--2--2--------|--3----3--3----3--3--3--|
--1----1--1----1--1--3--|----3--3--3--3--------|------------------------|

--1----1--1----1--1--1--|--0----0--0----0--0--0--|--1----1--1----1--1--1--|
--3----3--3----3--3--3--|--1----1--1----1--1--1--|--3----3--3----3--3--3--|
--1----1--1----1--1--1--|--0----0--0----0--0--0--|--1----1--1----1--1--1--|
--3----3--3----3--3--3--|--2----2--2----2--2--2--|--3----3--3----3--3--3--|
------------------------|--3----3--3----3--3--3--|------------------------|
------------------------|------------------------|------------------------|

--0----0--0----0--0--0--|--2----2--2----2--2--2--|--1----1--1----1-----4--|
--1----1--1----1--1--1--|--3----3--3----3--3--3--|--1----1--1----1-----4--|
--2----2--2----2--2--2--|--2----2--2----2--2--2--|--2----2--2----2-----5--|
--2----2--2----2--2--2--|--0----0--0----0--0--0--|--3----3--3----3--x--6--|
--0----0--0----0--0--0--|------------------------|--3----3--3----3--x--6--|
------------------------|------------------------|--1----1--1----1--x--4--|

----4----1----1--1----|-----------3--------------|--------7-----------------|
----4----3----3--3----|-----5--------5-----5-----|--9--------9-----9-----9--|
----5----3----3--3----|--5-----5--------5-----5--|-----9--------9-----9-----|
----6----3----3--3----|--------------------------|--------------------------|
----6----1----1--1----|--------------------------|--------------------------|
----4-----------------|--------------------------|--------------------------|

--------------8------------------|--11----------10----------10------|
------10---------10------10--13--|------13----------12--------------|
--10------10---------10------13--|----------13----------12------12/-|
---------------------------------|----------------------------------|
---------------------------------|----------------------------------|
---------------------------------|----------------------------------|

--5--------3--------------|-----------7--------------|
--5--5--------5-----5-----|-----9--------9-----9-----|
--5-----5--------5-----5/-|--9-----9--------9-----9--|
--------------------------|--------------------------|
--------------------------|--------------------------|
--------------------------|--------------------------|

--------------8------------------|--11----------10----------10/---|
------10---------10------10--13--|------13----------12------12/---|
--10------10---------10------13--|----------13----------12--12/---|
---------------------------------|--------------------------------|
---------------------------------|--------------------------------|
---------------------------------|--------------------------------|

--------------------------|--------------------------|
--------------------------|--------------------------|
--------------------------|--------------------------|
--------------------------|--------------------------|
--5--5--5--5--5--5--5--5--|--4--4--4--4--4--4--4--4--|
--------------------------|--------------------------|

--------------------------|--------------------------|
--------------------------|--------------------------|
--------------------------|--------------------------|
--------------------------|--------------------------|
--3--3--3--3--3--3--3--3--|--1--1--1--1--1--1--1--1--|
--------------------------|--------------------------|

--------------------------|--------------------------|
--------------------------|--------------------------|
--------------------------|--------------------------|
--------------------------|--------------------------|
--5--5--5--5--5--5--5--5--|--4--4--4--4--4--4--4--4--|
--------------------------|--------------------------|

--------------------------|--------------------------|-------------------|
--------------------------|--------------------------|-------------------|
--------------------------|--------------------------|----------------7/-|
--------------------------|--------------------------|-------------------|
--3--3--3--3--3--3--3--3--|--------------------------|-------------------|
--------------------------|--3--3--3--3--3--3--3--3--|-------------------|

-----------------------|--------------------------|
-----------------------|----------------10----12--|
--12----------9----10/-|--12------12--------------|
-----------------------|--------------------------|
-----------------------|--------------------------|
-----------------------|--------------------------|

---------------------------------------|--------------------------|
--10-12-10-12-10-12-10-----------------|--------------------------|
------------------------12----12----9--|--9--10----10----9----10--|
---------------------------------------|--------------------------|
---------------------------------------|--------------------------|
---------------------------------------|--------------------------|

---------8---------8--8------|----------------------------13--|
-------------------------12--|--13--13--15--13----12--13------|
--9--10-----9--10------------|--------------------------------|
-----------------------------|--------------------------------|
-----------------------------|--------------------------------|
-----------------------------|--------------------------------|

--13h-12--12/---------------------|-------------------------------|
--------------15--15/-13--13--12--|--12---------------------------|
----------------------------------|------12--12/-10--10--9--------|
----------------------------------|---------------------------10--|
----------------------------------|-------------------------------|
----------------------------------|-------------------------------|

-------------------------|----------------------------|
-------------------------|------------18----17----15--|
----------12----10----9--|--10/-12/-------------------|
--10---------------------|----------------------------|
-------------------------|----------------------------|
-------------------------|----------------------------|

------------------------13--|--13/-12--12/-10--10/-8--8-----|
--15/-13----12----13--------|----------------------------8--|
----------------------------|-------------------------------|
----------------------------|-------------------------------|
----------------------------|-------------------------------|
----------------------------|-------------------------------|

--------------------15--------|----------------15----15--|
------------12--13--------14--|----12----13/-------------|
--14----14--------------------|--------------------------|
------------------------------|--------------------------|
------------------------------|--------------------------|
------------------------------|--------------------------|

--17----------17------------16--|------------18--------------|
------15------------15----------|----15--14--------18--------|
----------17------------17/-----|----------------------19/---|
--------------------------------|----------------------------|
--------------------------------|----------------------------|
--------------------------------|----------------------------|

-----------3--------------|--------7-----------------|
-----5--------5-----5-----|--9--------9-----9-----9--|
--5-----5--------5-----5--|-----9--------9-----9-----|
--------------------------|--------------------------|
--------------------------|--------------------------|
--------------------------|--------------------------|

--------------8----------8--11--|----------11--------------10------|
------10---------10---------13--|--13--------------12--------------|
--10------10---------10-----13--|------13------12------12------12/-|
--------------------------------|----------------------------------|
--------------------------------|----------------------------------|
--------------------------------|----------------------------------|

-----------3--------------|--------7-----------------|
-----5--------5-----5-----|--9--------9-----9-----9--|
--5-----5--------5-----5--|-----9--------9-----9-----|
--------------------------|--------------------------|
--------------------------|--------------------------|
--------------------------|--------------------------|

--------------8----------8--11--|--11----------10--10------------|
------10---------10---------13--|------13------12------12--------|
--10------10---------10-----13--|----------13--------------12/---|
--------------------------------|--------------------------------|
--------------------------------|--------------------------------|
--------------------------------|--------------------------------|

-----------3--------------|-----------7--------------|
-----5--------5-----5-----|--9-----9-----9-----9-----|
--5-----5--------5-----5--|-----9-----------9-----9--|
--------------------------|--------------------------|
--------------------------|--------------------------|
--------------------------|--------------------------|

--------------8--------------11--|--11--------------10--------------|
------10---------10------10--13--|------13------12------12------12/-|
--10------10---------10--10--13--|----------13--12----------12------|
---------------------------------|----------------------------------|
---------------------------------|----------------------------------|
---------------------------------|----------------------------------|

-----------3--------------|--------7-----------------|
-----5--------5-----5-----|--9--------9-----9-----9--|
--5-----5--------5-----5--|-----9--------9-----9-----|
--------------------------|--------------------------|
--------------------------|--------------------------|
--------------------------|--------------------------|

--------------8----------8--11--|--11--------------10----------10--|
------10---------10---------13--|------13------12------12----------|
--10------10---------10-----13--|----------13--12----------12------|
--------------------------------|----------------------------------|
--------------------------------|----------------------------------|
--------------------------------|----------------------------------|

--0----0--0----0--0--0--|--1----1--1----1--1--1--|--0----0--0----0--0--0--|
--1----1--1----1--1--1--|--3----3--3----3--3--3--|--1----1--1----1--1--1--|
--0----0--0----0--0--0--|--1----1--1----1--1--1--|--0----0--0----0--0--0--|
--2----2--2----2--2--2--|--3----3--3----3--3--3--|--2----2--2----2--2--2--|
--3----3--3----3--3--3--|------------------------|--3----3--3----3--3--3--|
------------------------|------------------------|------------------------|

--1----1--1----1--1--1--|--0----0--0----0--0--0--|--1----1--1----1--1--1--|
--3----3--3----3--3--3--|--1----1--1----1--1--1--|--3----3--3----3--3--3--|
--1----1--1----1--1--1--|--0----0--0----0--0--0--|--1----1--1----1--1--1--|
--3----3--3----3--3--3--|--2----2--2----2--2--2--|--3----3--3----3--3--3--|
------------------------|--3----3--3----3--3--3--|------------------------|
------------------------|------------------------|------------------------|

--0----0--0----0--0--0--|--1----1--1----1--1--1--|--0----------------||
--1----1--1----1--1--1--|--3----3--3----3--3--3--|--1----------------||
--0----0--0----0--0--0--|--1----1--1----1--1--1--|--0----------------||
--2----2--2----2--2--2--|--3----3--3----3--3--3--|--2----------------||
--3----3--3----3--3--3--|------------------------|--3----------------||
------------------------|------------------------|-------------------||





Comments


Popular L Arc En Ciel tabs & chords
Birth Bass Tabs
Finale Bass Tabs
Flower Bass Tabs
Anata Chords
Existence Chords
Loreley Chords
Vivid Colors Chords
Dive To Blue Tabs
Fate Tabs
Lose Control Tabs


Song lyrics



↑ Back to top | Tablatures and chords are parodies/interpretations of the original songs. You may use it for private study, scholarship, research or language learning purposes only
© 2014 AZChords.com Contact us | Privacy policy | DMCA | Add/correct tabs | Request tabs | Top 50 tabs