>
 >
Loreley

Loreley Bass Tabs

L Arc En Ciel - Loreley chords, tabs, tablatures, lyrics

Guitar lessons | Add/correct | Request | Top 50 tabs Artists:  A B C D E F G H I J K L M N O P Q R S T U V W X Y Z 0-9

Loreley Bass Tabs – L Arc En Ciel

CD, Sheet music, Poster

Do you like Loreley? Share with your friends now
Bass TabsChords
PRE-VERSE

|-----------------|-0---0-----0-0---|-----------------|-----------------|
|-------4---4-0---|-------4-------0-|-----------------|-----------------|
|-----2-----------|-----------------|-5\3-3-2---3-3-2-|-2-0-0-----------|
|-0---------------|-----------------|-----------------|-------3---2-3-2-|

|-----------------|-0---0-----0-7---|-7-5-5-4---5-5-4-|-4-2-2-0---0-0---|
|-----2-4---4-0---|-------4---------|-----------------|---------------4-|
|-----------------|-----------------|-----------------|-----------------|
|-0---------------|-----------------|-----------------|-----------------|

|-----------------|-0---0-----0-0---|-----------------|-----------------|
|-------4---4-0---|-------4-------0-|-----------------|-----------------|
|-----2-----------|-----------------|-5\3-3-2---3-3-2-|-2-----------0---|
|-0---------------|-----------------|-----------------|---0-0-2---3---3-|

|-----------------|-0---0-----0-7---|-7-5-5-4---5-4-0-|-----------------|
|-----2-4---4-0---|---4---4---------|-----------------|-------------222-|
|-----------------|-----------------|-----------------|-----------------|
|-0---------------|-----------------|-----------------|---0-3-2---3-----|

VERSE

|-----------------|-----0-----0-----|-----5-4---5-4-0-|---2-2-0-----020-|
|-----2---1-2-1---|---------4---4-0-|-----------------|-----------4-----|
|---------------2-|-----------------|-3---------------|-0---------------|
|-0---------------|-3---------------|-----------------|-----------------|

|-----------------|-----0-----0-----|-----5-----4-5-0-|-----2-2-2-0---0-|
|-----2---1-1-1---|--------44---4-0-|-----------------|-------------4---|
|---------------2-|-----------------|-3---------------|-0-0-------------|
|-0---------------|-3---------------|-----------------|-----------------|

|-----------------|-----0-----0-----|-----5---4-5-5-0-|-2---0-----------|
|-2---2-----1-2---|-------4-----4-0-|-----------------|---0---4---4-4-0-|
|---------2-----2-|-----------------|-3-3-------------|-----------------|
|---0-------------|-3-0-------------|-----------------|-----------------|

|-----------------|-----0-----0-----|-----7--55-7-5-0-|---2-0-----------|
|-----2---1-2-----|-------4-----4-0-|-----------------|-------4---------|
|-------------2-4-|-----------------|-3---------------|-0-------3-------|
|-0-0-------------|---3-------------|-----------------|-----------0-2-3-|

PRE-CHORUS

|---------0-------|-----------------|---------0-------|-----------------|
|-0-0-4-0---4-0---|-----------------|-----4-----4-0---|-----------------|
|---------------3-|-------000-------|-0-0-----------3-|-----------2-/-\-|
|-----------------|---3-3-----332-3-|-----------------|---0-0-222-------|

|---------0-------|-----------------|-----------------|-----------------|
|-0-0-4-0---4-0---|-----------------|-----------------|-----------------|
|---------------3-|-------2---0-----|-----------------|-2-2-2-/-(14)--\-|
|-----------------|---------------3-|-5-5-5-5-5-5-/11\|-----------------|

CHORUS

|-----------------|-0---0-----0-0---|-----------------|-----------------|
|-------4---4-0---|-------4-------0-|-----------------|-----------------|
|-----2-----------|-----------------|-5\3-3-2---3-3-2-|-2-0-0-----------|
|-0---------------|-----------------|-----------------|-------3---2-3-2-|

|-----------------|-0---0-----0-7---|-7-5-5-4---5-5-0-|-2-0-0-----------|
|-----2-4---4-0---|-------4---------|-----------------|-------4---4-4-0-|
|-----------------|-----------------|-----------------|-----------------|
|-0---------------|-----------------|-----------------|-----------------|

|-----------------|-0---0-----0-0---|-----------------|-----------------|
|-------4---4-0---|-------4-------0-|-----------------|-----------------|
|-----2-----------|-----------------|-5\3-3-2---3-3-2-|-2-0-0-----------|
|-0---------------|-----------------|-----------------|-------3---2-3-2-|

|-----------------|-0---0-----0-7---|-7-5-5-4---5-5-0-|-42020-0---------|
|-----2-4---4-0---|-------4---------|-----------------|------4-424205-\-|
|-----------------|-----------------|-----------------|-----------------|
|-0---------------|-----------------|-----------------|-----------------|

|-----------------|-----------------|-----------------|-----------------||
|*----------------|-----------------|-----------------|-------0--------*||
|*----7-\-----5-\-|-3-3-3-3-0-0-0-0-|---------3-3-3-3-|-3-3-3----------*||
|-0-------3-3-----|-----------------|-0---------------|-----------3-2-3-||

PRE-VERSE

|-----------------|-0---0-----0-0---|-----------------|-----------------|
|-------4---4-0---|-------4-------0-|-----------------|-----------------|
|-----2-----------|-----------------|-5\3-3-2---3-3-2-|-2-0-0-----------|
|-0---------------|-----------------|-----------------|-------3---2-3-2-|

|-----------------|-0-0-0-----0-7---|-7-5-5-4\--2/(7)-|-2/5-5-4-----0---|
|-----2-4---4-0---|-------4---------|-----------------|-----------4---4-|
|-----------------|-----------------|-----------------|-----------------|
|-0---------------|-----------------|-----------------|-----------------|

VERSE

|-----------------|-----------------|-----------------|-----------------|
|-----------------|-----------------|-----------------|-----------------|
|-----------------|-----------------|-----------------|-----------3-7\--|
|-0---------------|-----------------|-----------------|-----------------|

|-----------------|-----0-------0---|-----0-5---5-0---|-------4---2-0---|
|-----2-2-2-1-2---|---------4-4---4-|-----------------|-----2---------2-|
|---------------2-|-----------------|-3---------------|-----------------|
|-0---------------|-3---------------|---------------5-|---0-------------|

|-----------------|-----0-----0-----|-------------0-5-|-9-7-5-7---------|
|-----2---0-4-4---|--------44---4-0-|-----2-24-44-----|---------------0-|
|---------------2-|-----------------|-3-3-------------|--------0-00-44--|
|-0---------------|-3---------------|-----------------|-----------------|

|-----------------|-----0-----0-----|-----5-54-45-4-0-|---2-0-----------|
|---2-2-01-12-1---|-------04-4--4-0-|-----------------|-------4-5-------|
|---------------2-|-----------------|-3-3-------------|-0---------------|
|-0---------------|-3-3-------------|-----------------|-----------0-2-3-|

PRE-CHORUS

|---------0---0---|-----------------|---------0-------|-----------------|
|-0-0-4-0---4-----|-----------------|-----4-----4-0---|-----------------|
|---------------3-|---------0-0-----|-0-0-----------3-|-----------2-/-\-|
|-----------------|---000-22---23-2-|-----------------|---0-0-222-------|

|---------0---0---|-----------------|-----------------|-----------------|
|-0-0-4-0---4-----|-----------------|-----------------|-----------------|
|---------------3-|-------2---0-----|-----------------|-2-2-2-/-(14)--\-|
|-----------------|---------------3-|-5-5-5-5-5-5-/11\|-----------------|

CHORUS

|-----------------|-0---0-----0-0---|-----------------|-----------------|
|-------4---4-0---|-------4-------0-|-----------------|-----------------|
|-----2-----------|-----------------|-5\3-3-2---3-3-2-|-2-0-0-----------|
|-0---------------|-----------------|-----------------|-------3---2-3-2-|

|-----------------|-0---0-----0-7---|-7-7-77-4-45-445-|-75544-54-4------|
|-----2-4---4-0---|-------4---------|-----------------|-----------5-775-|
|-----------------|-----------------|-----------------|-----------------|
|-0---------------|-----------------|-----------------|-----------------|

|-----------------|-0---0-----0-0---|-----------------|-----------------|
|-------4---4-0---|-------4-------0-|-----------------|-----------------|
|-----2-----------|-----------------|-5\3-3-2---3-3-2-|-2-0-0-----------|
|-0---------------|-----------------|-----------------|-------3---2-3-2-|

|-----------------|-0---0-----0-7---|-7---7-5---7-0---|-42420-0---------|
|-----2-4---4-0---|-------4---------|-----------------|------4-42020320-|
|-----------------|-----------------|-----------------|----------------4|
|-0---------------|-----------------|-----------------|-----------------|

|-----------------|-----------------|-----------------|-----------------||
|*----------------|-----------------|-----------------|-------0--------*||
|*----7-\-----5-\-|-3-3-3-3-0-0-0-0-|---------3-3-3-3-|-3-3-3----------*||
|-0-------3-3-----|-----------------|-0---------------|-----------3-2-3-||

ENDING

|-----------------|
|-----------------|
|-----------------|  9x
|-3-3-3-3-3-3-3-3-|

|-----------------|-0---0-----------|-0---0-----------|-----------------||
|-----------------|-----------------|-----------------|-0---------------||
|-----------------|---4---4---4---4-|---4---4---4-----|-----------------||
|-3-3-3-3-3-3-3-/-|---------3---3---|---------3---3-\-|--~~-------------||





Comments


Popular L Arc En Ciel tabs & chords
Blame Bass Tabs
Kaze No Yukue Bass Tabs
Love Flies Bass Tabs
Bless Chords
Flower Chords
Spirit Dreams Inside Chords
Stay Away Chords
Acoustic Alchemy Tabs
Evergreen Hyde Tabs
Jiyuu E No Shoutai Tabs


Song lyrics



↑ Back to top | Tablatures and chords are parodies/interpretations of the original songs. You may use it for private study, scholarship, research or language learning purposes only
© 2014 AZChords.com Contact us | Privacy policy | DMCA | Add/correct tabs | Request tabs | Top 50 tabs