>
 >
Kasou Part Ii

Kasou Part Ii Guitar Tabs

L Arc En Ciel - Kasou Part Ii chords, tabs, tablatures, lyrics

Guitar lessons | Add/correct | Request | Top 50 tabs Artists:  A B C D E F G H I J K L M N O P Q R S T U V W X Y Z 0-9

Kasou Part Ii Guitar Tabs – L Arc En Ciel

CD, Sheet music, Poster

Do you like Kasou Part Ii? Share with your friends now
Tabs
L`Arc en Ciel
 Kasou (part II)

 Tab by Mari no koibito


 Verse C

 Guitar 1
e|----------------------|----------------------|-----------------------|-----------------------|
B|----------------------|----------------------|-----------------------|-----------------------|
G|--12===---------------|----------------------|-----12===----12=12=12=|---11===----11===11=11=|
A|----------------------|----------------------|-x-x----x-x-x----------|-x----x-x-x----x-------|
D|----------------------|----------------------|-----------------------|-----------------------|
E|----------------------|----------------------|-----------------------|-----------------------|
 Guitar 2
e|----------------------|----------------------|----------------------|----------------------|
B|----------3-----------|----------3-----------|----------3-----------|----------3-----------|
G|-------0-----0-----0--|-------0-----0-----0--|-------0-----0-----0--|-------0-----0-----0--|
A|-----4----------4-----|-----4----------4-----|-----4----------4-----|-----4----------4-----|
D|--3-------------------|--3-------------------|--5-------------------|--5-------------------|
E|----------------------|----------------------|----------------------|----------------------|
                     ...tsuita...       ...owari...
 Guitar 1
e|----------------------|----------------------|-----------------------|--------------------------|
B|----------------------|----------------------|-----------------------|--------------------------|
G|--12===------------/1=|----------------------|-----12===----12=12=12=|---11===----11===14=14=16=|
A|----------------------|----------------------|-x-x----x-x-x----------|-x----x-x-x----x----------|
D|----------------------|----------------------|-----------------------|--------------------------|
E|----------------------|----------------------|-----------------------|--------------------------|
 Guitar 2
e|----------------------|----------------------|-------------------2--|---2---2---0---2---2---|
B|----------3-----------|----------3-----------|----------3--------3--|---3---3---3---3---3---|
G|-------0-----0-----0--|-------0-----0-----0--|-------0-----0-----2--|---2---2---2---2---2---|
A|-----4----------4-----|-----4----------4-----|-----4----------4--0--|---0---0---0---0---0---|
D|--3-------------------|--3-------------------|--5-------------------|-----------------------|
E|----------------------|----------------------|----------------------|-----------------------|
              ...kawari...                                                         ...nomiko...
 Guitar 1
e|----------------------|----------------------|----------------------|----------------------|
B|----------------------|----------------------|----------------------|----------------------|
G|-12------12-----12-12-|-12-------12----12-12-|-11------11--11-11-11-|----------------------|
A|---x-x-x----x-x-------|---x-x-x----x-x-------|---x-x-x---x----------|-12-x-x-x-12-x-12-12--|
D|----------------------|----------------------|----------------------|----------------------|
E|----------------------|----------------------|----------------------|----------------------|
 Guitar 2
e|----------------------|----------------------|----------------------|--------3--2--2--x-x--|
B|----------3-----------|----------3-----------|-------------------3--|--3--3--3--3--3--x-x--|
G|-------0-----0-----0--|-------0-----0-----0--|----------0--------0--|--0--0----------------|
A|-----4----------4-----|-----4----------4-----|-------4-----4--------|----------------------|
D|--3-------------------|--3-------------------|--2--2----------2-----|----------------------|
E|----------------------|----------------------|----------------------|----------------------|
            ...tsuchi no...                                      ...itta ya...
 Guitar 1
e|-------------------------|------------------|--------------------------|-----------------------|
B|-------------------------|------------------|--------------------------|-----------------------|
G|-------------------------|------------------|--------------------------|-----------------------|
A|-------------------------|------------------|--------------------------|-----------------------|
D|-------------------------|------------------|--------------------------|-----------------------|
E|-------------------------|------------------|--------------------------|-----------------------|
 Guitar 2
e|-------------0-----------|---------------0--|--------------------------|--8--8---10---7--7--7--|
B|----------1-----1-----1--|-----1--1------1--|-----3--------3-----------|--7--7----7---7--7--7--|
G|--------0----------0-----|--0--------0---0--|--------0--------0--------|--8--8----8---8--8--8--|
A|------2------------------|------------------|-----------4--------4-----|-----------------------|
D|---0---------------------|------------------|--5--------------------5--|-----------------------|
E|-------------------------|------------------|--------------------------|-----------------------|
	    ...shinda...							...ah! ha...


 Chorus

 Guitar 1
e|------------------------|----------------------|--0--0--0--0--0--|--0--0--1--1--1--|
B|------------------------|----------------------|--0--0--0--0--0--|--2--2--3--3--3--|
G|------------------------|----------------------|--0--0--0--0--0--|--0--0--2--2--2--|
A|------------------------|----------------------|-----------------|-----------------|
D|------------------------|----------------------|-----------------|-----------------|
E|------------------------|----------------------|-----------------|-----------------|
 Guitar 2
e|------------------------|----------------------|-----0-----------|-----------------|
B|------------------------|----------------------|---------0-------|-----------------|
G|-----------0------------|-------------0--------|-----------------|-----------------|
A|--------4------4--0-----|--2-------------4-----|-----------------|-----------------|
D|-----2---------------3--|-----3--3s5--------5--|-----------------|-----------------|
E|--0---------------------|----------------------|--0--------------|-----------------|
   ...barabara...                                  ...shizuku...
 Guitar 1
e|------------------------|----------------------|--0--0--0--0--0--|--------------------|
B|------------------------|----------------------|--0--0--0--0--0--|-----------7--7--8--|
G|------------------------|----------------------|--0--0--0--0--0--|--------------------|
A|------------------------|----------------------|-----------------|--------------------|
D|------------------------|----------------------|-----------------|--------------------|
E|------------------------|----------------------|-----------------|--------------------|
 Guitar 2
e|------------------------|----------------------|-----0-----------|--2--2--0--0--2--2--|
B|------------------------|----------------------|---------0-------|--3--3--3--3--3--3--|
G|-----------0------------|-------------0--------|-----------------|--2--2--2--2--2--2--|
A|--------4------4--0-----|--2-------------4-----|-----------------|--------------------|
D|-----2---------------3--|-----3--3s5--------5--|-----------------|--------------------|
E|--0---------------------|----------------------|--0--------------|--------------------|
   ...kaketa...                                   ...koi wo... 


 Verse D / Ken solo

 Guitar 1
e|---------------------|---------------------|--10---------8h10p8--|
B|--10---------8h10p8--|--7--8--7------7--8--|---------------------|
G|---------------------|------------9--------|---------------------|
A|---------------------|---------------------|---------------------|
D|---------------------|---------------------|---------------------|
E|---------------------|---------------------|---------------------|
 Guitar 2
e|--0------------------|-------------0--x-x--|--2---2--2--2--2--2--|
B|--1------------------|-------------1--x-x--|--3---3--3--3--3--3--|
G|--0------------------|-------------0--x-x--|--2---2--2--2--2--2--|
A|--2------------------|-------------2--x-x--|--4---4--4--4--4--4--|
D|--0------------------|-------------0--x-x--|--2---2--2--2--2--2--|
E|--x------------------|-------------x--x-x--|--x---x--x--x--x--x--|

 Guitar 1
e|--7----8--7-----------------------|---------------------------7--|
B|----10------10-8--7---------------|------------------5----5------|
G|--------------------9-7--5h7p5s4--|--5(d5)p4-------5----5---5----|
A|----------------------------------|----------7--5----------------|
D|----------------------------------|------------------------------|
E|----------------------------------|------------------------------|
 Guitar 2
e|--2----------------2--2--2--x-x---|--0-------------0--0--0--0----|
B|--3----------------3--3--3--x-x---|--2-------------2--2--2--2----|
G|--2----------------2--2--2--x-x---|--0-------------0--0--0--0----|
A|--4----------------4--4--4--x-x---|--3-------------3--3--3--3----|
D|--2----------------2--2--2--x-x---|--0-------------0--0--0--0----|
E|--x----------------x--x--x--x-x---|--x-------------x--x--x--x----|

 Guitar 1
e|-----------6---------7--|--7s8-8s10-10--8h10p8--7------7--8--|
B|--8----5--------5--s/---|--------------------------10--------|
G|---s/5---5----5---5-----|------------------------------------|
A|------------------------|------------------------------------|
D|------------------------|------------------------------------|
E|------------------------|------------------------------------|
 Guitar 2
e|----------0--0--0--x-x--|--2---------2---2------2-----2---2--|
B|----------2--2--2--x-x--|--3---------3---3------3-----3---3--|
G|----------0--0--0--x-x--|--2---------2---2------2-----2---2--|
A|----------3--3--3--x-x--|--4---------4---4------4-----4---4--|
D|----------0--0--0--x-x--|--2---------2---2------2-----2---2--|
E|----------x--x--x--x-x--|--x---------x---x------x-----x---x--|

 Guitar 1
e|--10s12--12--10--10--14--15s14--|--14-s-12--12--------|
B|--------------------------------|---------------------|
G|--------------------------------|---------------------|
A|--------------------------------|---------------------|
D|--------------------------------|---------------------|
E|--------------------------------|---------------------|
 Guitar 2
e|--2---2---2---2---2---2--2-x-x--|--0------------------|
B|--3---3---3---3---3---3--3-x-x--|--1------------------|
G|--2---2---2---2---2---2--2-x-x--|--0------------------|
A|--4---4---4---4---4---4--4-x-x--|--2------------------|
D|--2---2---2---2---2---2--2-x-x--|--0------------------|
E|--x---x---x---x---x---x--x-x-x--|--x------------------|
                                    ...koyoi...


 Verse E

 Guitar 1
e|--12------------------|--(12)---------------|-(12)-----------------|
B|----------------------|---------------------|----------------------|
G|----------------------|---------------------|----------------------|
A|----------------------|---------------------|----------------------|
D|----------------------|---------------------|----------------------|
E|----------------------|---------------------|----------------------|
 Guitar 2
e|--3---0--2---0--0--0--|--0------0--0--0--0--|--3---0--2---0--0--0--|
B|--1---1--1---1--1--1--|--0------0--0--0--0--|--0---0--0---0--0--0--|
G|--0---0--0---0--0--0--|--0------0--0--0--0--|--0---0--0---0--0--0--|
A|----------------------|--2------2--2--2--2--|----------------------|
D|----------------------|--2------2--2--2--2--|----------------------|
E|----------------------|--x------x--x--x--x--|----------------------|
...mou...               ...yume...             ...yagate...
 Guitar 1
e|----------------------|----------------------|----------------------|
B|----------------------|----------------------|----------------------|
G|----------------------|----------------------|----------------------|
A|----------------------|----------------------|----------------------|
D|----------------------|----------------------|----------------------|
E|----------------------|----------------------|----------------------|
 Guitar 2
e|--0---0--0---0--0--0--|--3---0--2---0--0--0--|--2--------|-----------|-----0-----|
B|--1---1--1---1--1--1--|--1---1--1---1--1--1--|--3--------|-----------|-----0-----|
G|--0---0--0---0--0--0--|--0---0--0---0--0--0--|--2--------|-----------|-----0-----|
A|--2---2--2---2--2--2--|----------------------|--0--------|-----------|-----2-----|
D|--3---3--3---3--3--3--|----------------------|--x--------|-----------|-----2-----|
E|--x---x--x---x--x--x--|----------------------|--x--------|-----------|-----0-----|
 ...tojita...           ...mi...                           ...ah! ha...   


 Verse F

 Guitar 1
e|------------------------|----------------------|--0--0--0--0--0--|--0--0--1--1--1--|
B|------------------------|----------------------|--0--0--0--0--0--|--2--2--3--3--3--|
G|------------------------|----------------------|--0--0--0--0--0--|--0--0--2--2--2--|
A|------------------------|----------------------|-----------------|-----------------|
D|------------------------|----------------------|-----------------|-----------------|
E|------------------------|----------------------|-----------------|-----------------|
 Guitar 2
e|------------------------|----------------------|-----0-----------|-----------------|
B|------------------------|----------------------|---------0-------|-----------------|
G|-----------0------------|-------------0--------|-----------------|-----------------|
A|--------4------4--0-----|--2-------------4-----|-----------------|-----------------|
D|-----2---------------3--|-----3--3s5--------5--|-----------------|-----------------|
E|--0---------------------|----------------------|--0--------------|-----------------|
  ...kurui...                                    ...tamashii...
 Guitar 1
e|------------------------|----------------------|--0--0--0--0--0--|--0--0--1--1--1--|
B|------------------------|----------------------|--0--0--0--0--0--|--2--2--3--3--3--|
G|------------------------|----------------------|--0--0--0--0--0--|--0--0--2--2--2--|
A|------------------------|----------------------|-----------------|-----------------|
D|------------------------|----------------------|-----------------|-----------------|
E|------------------------|----------------------|-----------------|-----------------|
 Guitar 2
e|------------------------|----------------------|-----0-----------|-----------------|
B|------------------------|----------------------|---------0-------|-----------------|
G|-----------0------------|-------------0--------|-----------------|-----------------|
A|--------4------4--0-----|--2-------------4-----|-----------------|-----------------|
D|-----2---------------3--|-----3--3s5--------5--|-----------------|-----------------|
E|--0---------------------|----------------------|--0--------------|-----------------| 
  ...yami ni...                                   ...no hana...
 Guitar 1
e|------------------------|----------------------|--0--0--0--0--0--|--0--0--1--1--1--|
B|------------------------|----------------------|--0--0--0--0--0--|--2--2--3--3--3--|
G|------------------------|----------------------|--0--0--0--0--0--|--0--0--2--2--2--|
A|------------------------|----------------------|-----------------|-----------------|
D|------------------------|----------------------|-----------------|-----------------|
E|------------------------|----------------------|-----------------|-----------------|
 Guitar 2
e|------------------------|----------------------|-----0-----------|--------2--------|
B|------------------------|----------------------|---------0-------|--------3--------|
G|-----------0------------|-------------0--------|-----------------|--------2--------|
A|--------4------4--0-----|--2-------------4-----|-----------------|--------0--------|
D|-----2---------------3--|-----3--3s5--------5--|-----------------|-----------------|
E|--0---------------------|----------------------|--0--------------|-----------------|
  ...barabara...                                  ...shizuku...
 Guitar 1
e|------------------------|----------------------|------------|------------|-----------|
B|------------------------|----------------------|------------|------------|-----------|
G|------------------------|----------------------|------------|------------|-----------|
A|------------------------|----------------------|------------|------------|-----------|
D|------------------------|----------------------|------------|------------|-----------|
E|------------------------|----------------------|------------|------------|-----------|
 Guitar 2
e|------------------------|----------------------|-----0------|-----2------|-------2---|
B|------------------------|----------------------|---------0--|-----3------|-------3---|
G|-----------0------------|-------------0--------|------------|-----2------|-------2---|
A|--------4------4--0-----|--2-------------4-----|------------|-----0------|-------0---|
D|-----2---------------3--|-----3--3s5--------5--|------------|------------|-------x---|
E|--0---------------------|----------------------|--0---------|------------|-------x---|
  ...kaketa...                                    ...koi wo... 


 Verse G

 Guitar 1
e|-----------------------|-----------------------------|--------------------------|
B|-----------------------|-----------------------------|--------------------------|
G|-----------------------|-----------------------------|--------------------------|
A|-----------------------|-----------------------------|--------------------------|
D|-----------------------|-----------------------------|--------------------------|
E|-----------------------|-----------------------------|--------------------------|
 Guitar 2
e|--7--7-x--10-10--x-----|-----------------------------|--7--7-x--10--x-10--x--0--|
B|--0--0-x---7--7--x--8--|--8--8--8-8--10--8--10--x-x--|--0--0-x---7--x--7--x--0--|
G|--0--0-x---0--0--x--9--|--9--9--9-9--11--9--11--x-x--|--0--0-x---7--x--7--x--9--|
A|-----------------------|-----------------------------|----------------------10--|
D|--7--7-x---------------|-----------------------------|--7--7-x------------------|
E|-----------------------|-----------------------------|--------------------------|

 Guitar 1
e|-----------------------|-----------------------|-----------------------------|
B|-----------------------|-----------------------|-----------------------------|
G|-----------------------|-----------------------|-----------------------------|
A|-----------------------|-----------------------|-----------------------------|
D|-----------------------|-----------------------|-----------------------------|
E|-----------------------|-----------------------|-----------------------------|
 Guitar 2
e|--x--------------------|--7--7-x--10-10--x-----|-----------------------------|
B|--x---10----10---x--x--|--0--0-x---7--7--x--8--|--8--8--8-8--10--8--10--x-x--|
G|--x----9-----9---x--x--|--0--0-x---0--0--x--9--|--9--9--9-9--11--9--11--x-x--|
A|--x---12----12---x--x--|-----------------------|-----------------------------|
D|-----------------------|--7--7-x---------------|-----------------------------|
E|-----------------------|-----------------------|-----------------------------|
                               ...kurui zaita...
 Guitar 1
e|-------------------------|-------------------------|
B|-------------------------|-------------------------|
G|-------------------------|-------------------------|
A|-------------------------|-------------------------|
D|-------------------------|-------------------------|
E|-------------------------|-------------------------|
 Guitar 2
e|--7--7-x-10--x-10--x--0--|-------------------------|
B|--0--0-x--7--x--7--x--0--|-------------------------|
G|--0--0-x--7--x--7--x--9--|-------------------------|
A|---------------------10--|-------------------------|   END!!!
D|--7--7-x-----------------|-------------------------|
E|-------------------------|-------------------------| 


  Kasou
  [L'Arc~en~Ciel]

  barabara ni chirabaru hanabira shizuku wa kurenai 
  kaketa tsuki yo maware towa no koi wo utsushi 

  hitomi aketa mama fushoku shiteyuku karada 
  azayaka ni ushinawareru kono ishiki dake wo nokoshite 
  haru wo matezu ni 

  itoshii anata wa tada sotto tsumetaku natte 
  ude no nakade kowarenagara hora yume no fuchi de yonderu 
  itsumo no you ni...ah! ha...

  kurui saita yoru ni nemurenu tamashii no senritsu 
  yami ni ukabu hana wa semetemono hanamuke 

  gravity is on the increase as time goes by 
  my body returns to the earth 
  there is sky up in the air 
  my body is in your sky and your life is in my cosmos 
  we never come close to each other 
  but here we exist as it is...... 

  tadoritsuita owari umarekawari no itami 
  nomikomareru tsuchi no nakade musubareteitta yakusoku 
  shinda sekai...ah! ha... 

  barabara ni chirabaru hanabira shizuku wa kurenai 
  kaketa tsuki yo maware towa no koi wo utsushi 

  (Ken solo)
 
  koyoi wa mou yumeutsutsu 
  yagate tojita hitomi...AH! ha... 

  kurui saita yoru ni nemurenu tamashii no senritsu 
  yami ni ukabu hana wa semetemono hanamuke 

  barabara ni chirabaru hanabira shizuku wa kurenai 
  kaketa tsuki yo maware towa no koi wo utsushi 

  kurui zaita yoru ni... 


 greetings to Rinatsu! ^____^





Comments


Popular L Arc En Ciel tabs & chords
All Dead Bass Tabs
Kaze No Yukue Bass Tabs
Shi No Hai Bass Tabs
Dive To Blue Chords
Farewell Chords
Spirit Dreams Inside Chords
Vivid Colors Chords
Fate Tabs
Jiyuu E No Shotai Tabs
Stay Away (Solo) Tabs


Song lyrics



↑ Back to top | Tablatures and chords are parodies/interpretations of the original songs. You may use it for private study, scholarship, research or language learning purposes only
© 2014 AZChords.com Contact us | Privacy policy | DMCA | Add/correct tabs | Request tabs | Top 50 tabs