>
 >
Fate

Fate Guitar Tabs

L Arc En Ciel - Fate chords, tabs, tablatures, lyrics

Guitar lessons | Add/correct | Request | Top 50 tabs Artists:  A B C D E F G H I J K L M N O P Q R S T U V W X Y Z 0-9

Fate Guitar Tabs – L Arc En Ciel

CD, Sheet music, Poster

Do you like Fate? Share with your friends now
ChordsTabs
L`Arc~en~Ciel:
Fate

more
larc en ciel tabs                                      [jigz]

                                                                  
E||----------17-17-17--17--------|--------17-17-17--17--17b-17----|
B||------------------------------|--------------------------------|
G||------------------------18-19-|-----------------------------18-|
D||------------------------------|--------------------------------|
A||------------------------------|--------------------------------|
E||------------------------------|--------------------------------|


                                                    
--------------------------|------------------------|
------------------17--19~-|--------------17----19--|
----------18--19----------|----------19------------|
--------------------------|------------------------|
--------------------------|------------------------|
--------------------------|------------------------|


                                                                  
--------------------------------|--------------------------------|
--------------------------------|--------------------------------|
--------18----------------------|--------14-14-14--14--14b-14----|
------------19-19-19--19--------|-----------------------------11-|
--------------------------16-17-|--------------------------------|
--------------------------------|--------------------------------|


                                                                              
---------------------------|-----------------------|-------------------------|
---------------------------|-----------------------|---------10----10--7--7--|
--------------------9--11~-|----11----9----9----7--|----7--------------------|
------11----11--12---------|-----------------------|-------------------------|
---------------------------|-----------------------|-------------------------|
---------------------------|-----------------------|-------------------------|


                                                                              
------------------|-------------------|-------------------|------------------|
------------------|-------------------|-------------------|------------------|
------------------|-------------------|-------------------|------------------|
------------------|----------------4--|-------------------|------------------|
------------------|-------------------|--2----------------|------------------|
------------------|-------------------|-------------------|------------------|


                                                                            
------------------|------------------|------------------|------------------|
------------------|------------------|------------------|------------------|
------------------|------------------|------------------|------------------|
------------------|------------------|------------------|------------------|
------------------|------------------|------------------|------------------|
------------------|------------------|------------------|------------------|


                                                                            
------------------|------------------|------------------|------------------|
------------------|------------------|------------------|------------------|
------------------|------------------|------------------|------------------|
------------------|------------------|------------------|------------------|
------------------|------------------|------------------|------------------|
------------------|------------------|------------------|------------------|


                                                                            
------------------|------------------|------------------|------------------|
------------------|------------------|------------------|------------------|
------------------|------------------|------------------|------------------|
------------------|------------------|------------------|------------------|
------------------|------------------|------------------|------------------|
------------------|------------------|------------------|------------------|


                                                                            
------------------|------------------|------------------|------------------|
------------------|------------------|------------------|------------------|
------------------|------------------|------------------|------------------|
------------------|------------------|------------------|------------------|
------------------|------------------|------------------|------------------|
------------------|------------------|------------------|------------------|


                                                                            
------------------|------------------|------------------|------------------|
------------------|------------------|------------------|------------------|
------------------|------------------|------------------|------------------|
------------------|------------------|------------------|------------------|
------------------|------------------|------------------|------------------|
------------------|------------------|------------------|------------------|


                                                                            
------------------|------------------|------------------|------------------|
------------------|------------------|------------------|------------------|
------------------|------------------|------------------|------------------|
------------------|------------------|------------------|------------------|
------------------|------------------|------------------|------------------|
------------------|------------------|------------------|------------------|


                                                                            
------------------|------------------|------------------|------------------|
------------------|------------------|------------------|------------------|
------------------|------------------|------------------|------------------|
------------------|------------------|------------------|------------------|
------------------|------------------|------------------|------------------|
------------------|------------------|------------------|------------------|


                                                                            
------------------|------------------|------------------|------------------|
------------------|------------------|------------------|------------------|
------------------|------------------|------------------|------------------|
------------------|------------------|------------------|------------------|
------------------|------------------|------------------|------------------|
------------------|------------------|------------------|------------------|


                                                                    
---------9----10------|----------9----------|----------12----------|
------7---------------|---------------------|----------------------|
----------------------|------11-------------|------11--------------|
----------------------|---------------------|----------------------|
----------------------|---------------------|----------------------|
----------------------|---------------------|----------------------|


                                                                
------------------|----------10----------|----------9----------|
------------------|----------------------|---------------------|
------------------|------11--------------|------11-------------|
------------------|----------------------|---------------------|
------------------|----------------------|---------------------|
------------------|----------------------|---------------------|


                                                              
----------9--12--------|------------------|------------------|
-----------------------|------------------|------------------|
------11---------------|------------------|------------------|
-----------------------|------------------|------------------|
-----------------------|------------------|------------------|
-----------------------|------------------|------------------|


                                                                            
------------------|------------------|------------------|------------------|
------------------|------------------|------------------|------------------|
------------------|------------------|------------------|------------------|
------------------|------------------|------------------|------------------|
------------------|------------------|------------------|------------------|
------------------|------------------|------------------|------------------|


                                                                            
------------------|------------------|------------------|------------------|
------------------|------------------|------------------|------------------|
------------------|------------------|------------------|------------------|
------------------|------------------|------------------|------------------|
------------------|------------------|------------------|------------------|
------------------|------------------|------------------|------------------|


                                                                            
------------------|------------------|------------------|------------------|
------------------|------------------|------------------|------------------|
------------------|------------------|------------------|------------------|
------------------|------------------|------------------|------------------|
------------------|------------------|------------------|------------------|
------------------|------------------|------------------|------------------|


                                                                            
------------------|------------------|------------------|------------------|
------------------|------------------|------------------|------------------|
------------------|------------------|------------------|------------------|
------------------|------------------|------------------|------------------|
------------------|------------------|------------------|------------------|
------------------|------------------|------------------|------------------|


                                                                            
------------------|------------------|------------------|------------------|
------------------|------------------|------------------|------------------|
------------------|------------------|------------------|------------------|
------------------|------------------|------------------|------------------|
------------------|------------------|------------------|------------------|
------------------|------------------|------------------|------------------|


                                                                            
------------------|------------------|------------------|------------------|
------------------|------------------|------------------|------------------|
------------------|------------------|------------------|------------------|
------------------|------------------|------------------|------------------|
------------------|------------------|------------------|------------------|
------------------|------------------|------------------|------------------|


                                                                            
------------------|------------------|------------------|------------------|
------------------|------------------|------------------|------------------|
------------------|------------------|------------------|------------------|
------------------|------------------|------------------|------------------|
------------------|------------------|------------------|------------------|
------------------|------------------|------------------|------------------|


                                                                            
------------------|------------------|------------------|------------------|
------------------|------------------|------------------|------------------|
------------------|------------------|------------------|------------------|
------------------|------------------|------------------|------------------|
------------------|------------------|------------------|------------------|
------------------|------------------|------------------|------------------|


                                                                       
------------------|------------------|----------17-17-17-17-17--------|
------------------|------------------|--------------------------------|
------------------|------------------|--------------------------18-19-|
------------------|------------------|--------------------------------|
------------------|------------------|--------------------------------|
------------------|------------------|--------------------------------|


                                                              
--------17-17-17-17-17--19--17----|--------------------------|
----------------------------------|------------------17--19~-|
-------------------------------18-|----------18--19----------|
----------------------------------|--------------------------|
----------------------------------|--------------------------|
----------------------------------|--------------------------|


                                                                
--------------------------|--14--------------------------------|
----------------17----17--|------------------------------------|
--------19--19------------|--------------14-14-14-14-14--------|
--------------------------|------------------------------11-12-|
--------------------------|------------------------------------|
--------------------------|--------15--------------------------|


                                                                            
------------------14---12-10--12--14--|--15-14-17---17-15-14-15--17--19----|
----------10--------------------------|------------------------------------|
------11------11----------------------|------------------------------------|
--------------------------------------|------------------------------------|
--------------------------------------|------------------------------------|
--------------------------------------|------------------------------------|


                                                                                
-----17---15h17h15-14--15--14--14--|--21---21---21~---------|------------------|
-----------------------------------|------------------------|------------------|
-----------------------------------|------------------------|------------------|
-----------------------------------|------------------------|------------------|
-----------------------------------|------------------------|------------------|
-----------------------------------|------------------------|------------------|


                                                                            
------------------|------------------|------------------|------------------|
------------------|------------------|------------------|------------------|
------------------|------------------|------------------|------------------|
------------------|------------------|------------------|------------------|
------------------|------------------|------------------|------------------|
------------------|------------------|------------------|------------------|


                                                         
------------------|------------------|------------------|
------------------|------------------|------------------|
------------------|------------------|------------------|
------------------|------------------|------------------|
------------------|------------------|------------------|
------------------|------------------|------------------|


                                                                      
-----------------------|-----------------------|---------------------|
-----------------------|-----------------------|---------------------|
-----------------------|-----------------------|---------------------|
--------------2--0-----|--------4--2-----------|---------------------|
-----------------------|-----4------------4----|--1------2------1----|
------2--3----------3--|--2--------------------|---------------------|


                                                                    
-------------------|-----------------------|-----------------------|
-------------------|-----------------------|-----------------------|
-------------------|-----------------------|-----------------------|
-------------------|--------------2--0-----|--------4--2-----------|
----2--------------|-----------------------|-----4------------4----|
-------------------|------2--3----------3--|--2--------------------|


                                                                                
--------------------|------------------|------------------|--------------------|
--------------------|------------------|------------------|--3------------0----|
--------------------|------------------|------------------|--------------------|
--------------------|------------------|------------------|--------------------|
--1------2----------|------------------|------------------|--------------------|
--------------------|------------------|------------------|--------------------|


                                                                
--------------------|-------------------|----------------------|
--------------------|-------------------|----------------------|
--2------------0----|-------------------|--4-------------------|
--------------------|--4----------------|-------4----2----4----|
--------------------|-------------------|----------------------|
--------------------|-------------------|----------------------|


                                                                  
-----------------------|--------------------|--------------------|
--3--------2--3--2--0--|--------------------|--------------------|
-----------------------|--2------------0----|--------------------|
-----------------------|--------------------|--4----------2------|
-----------------------|--------------------|--------------------|
-----------------------|--------------------|--------------------|


                                                                  
-----------------------|--------------------|--------------------|
--0--------------------|--3------------0----|--------------------|
------3---0------------|--------------------|--2------------0----|
-------------4----2----|--------------------|--------------------|
-----------------------|--------------------|--------------------|
-----------------------|--------------------|--------------------|


                                                                   
-------------------|----------------------|-----------------------|
-------------------|----------------------|--3--------2--3--2--0--|
-------------------|--4-------------------|-----------------------|
--4----------------|-------4----2----4----|-----------------------|
-------------------|----------------------|-----------------------|
-------------------|----------------------|-----------------------|


                                                                  
--------------------|--------------------|-----------------------|
--------------------|--------------------|--0--------------------|
--2------------0----|--------------------|------3---0------------|
--------------------|--4----------2------|-------------4----2----|
--------------------|--------------------|-----------------------|
--------------------|--------------------|-----------------------|


                                                         
------------------|------------------|------------------|
------------------|------------------|------------------|
------------------|------------------|------------------|
------------------|------------------|------------------|
------------------|------------------|------------------|
------------------|------------------|------------------|


                                                                  
------------------------------------------|---------10----9------|
----------------5---------5-7-------5-7-8-|--7-------------------|
----------4-6-7-----4-6-7-----4-6-7-------|----------------------|
------5-7---------7-----------------------|----------------------|
------------------------------------------|----------------------|
------------------------------------------|----------------------|


                                                                    
--9---------10---9-------|--12----------------|--15----------------|
-------7-------------10--|--------------------|--------------------|
-------------------------|--------------------|--------------------|
-------------------------|--------------------|--------------------|
-------------------------|--------------------|--------------------|
-------------------------|--------------------|--------------------|


                                       
------------------|------------------||
------------------|------------------||
------------------|------------------||
------------------|------------------||
------------------|------------------||
------------------|------------------||





Comments


Popular L Arc En Ciel tabs & chords
Loreley Bass Tabs
Perfect Blue Bass Tabs
Shi No Hai Bass Tabs
Bless Chords
Drivers High Chords
Cest La Vie Tabs
Drivers High Tabs
Evergreen Hyde Tabs
Honey Tabs
Lose Control Tabs


Song lyrics



↑ Back to top | Tablatures and chords are parodies/interpretations of the original songs. You may use it for private study, scholarship, research or language learning purposes only
© 2014 AZChords.com Contact us | Privacy policy | DMCA | Add/correct tabs | Request tabs | Top 50 tabs