» » »

L Arc En Ciel, Evergreen Hyde Tabs (ver.1)

Artists:  A B C D E F G H I J K L M N O P Q R S T U V W X Y Z # 

Evergreen Hyde Tabs (ver.1)

L Arc En Ciel Tabs
Rating:
0/5 (0 votes)
Evergreen Hyde lessons Tabs too difficult? Try these video lessons and learn fast
                evergreen (Tab) 
hyde 
(about) (picture) (added at 09/06 00:45) 

key:

^^ = 1 step bend
^  = 1/2 step bend
/  = slide
h  = hammering
p  = pull-off
~  = vibrato

Guitar Tab !



Riff 1:

   D             A7/C#           GM7/B          D/A
e -5-------------0-----0-2-------------------------------
B --------7--------2-------3-----------3---------------3-
G ---7------7--------0-------0-------0------0--------0---
D -----7------7--------------------4-------4-4-----4-----
A -5-------------4---------------2---------------0-------
E -------------------------------------------------------

        GM7             D/A      A
e ---------------------------------------
B ------------3---------------3--2-------
G --0-------0------0--------0------2---2-
D -4-4----4-------4-4-----4----------2---
A ----------------------0--------0-------
E ------3--------------------------------


   Em7/B          Em7/A    A7
e ---------------------------------
B -------3--------0--------2-----2-
G -----0---0--------0---0----0-----
D ---2-------2--------2--------2---
A -2-----------2--0--------0-------
E ---------------------------------

Riff 2:

   D             A7/C#           GM7/B          D/A
e -5-------------0-----0-2-------------------------------
B --------7--------2-------3-----------3---------------3-
G ---7------7--------0-------0-------0------0--------0---
D -----7------7--------------------4-------4-4-----4-----
A -5-------------4---------------2---------------0-------
E -------------------------------------------------------

        GM7             D/A      A
e ---------------------------------------
B ------------3---------------3--2-------
G --0-------0------0--------0------2---2-
D -4-4----4-------4-4-----4----------2---
A ----------------------0--------0-------
E ------3--------------------------------


   Em7/B          F#sus4    F#
e ---------------------------------
B -------3--------------2-3-2------
G -----0---0----------3-------3----
D ---2-------2------4-----------4--
A -2-----------2--0----------------
E ---------------------------------


Riff 3: (chorus)

   Bm        A6      G        D/F#
e -------2--------2-----------------2-------
B -----3----------2--------3------3---3-----
G ---4---------2---------4------2-------2---
D ---------------------5------4-----------4-
A -2---------0-------3----------------------
E ------------------------------------------

   Em7           A7
e ---------------------------0-----
B -----0-3-------------3-------2---
G ---0-----0-------2-------------0-
D -2---------2-------2-------------
A ---------------0--------0--------
E ---------------------------------

   Em7           Em7/A   A7
e -------------------------------
B -------3-------------3-2-------
G -----0-------------2-----2---2-
D ---2-------------2---------2---
A ---------------0---------------
E -0-----------------------------


   Bm        A6      G        D/F#
e -------2--------2-----------------2-------
B -----3----------2--------3------3---3-----
G ---4---------2---------4------2-------2---
D ---------------------5------4-----------4-
A -2---------0-------3----------------------
E ------------------------------------------

   Em7           A7
e ---------------------------0-----
B -----0-3-------------3-------2---
G ---0-----0-------2-------------0-
D -2---------2-------2-------------
A ---------------0--------0--------
E ---------------------------------

   Em7       Em7/A   A7
e ----------------------------------
B -----3-----3-----------2----------
G -------0-----0-------2---2--------
D ---2-----------2---2-------2------
A -----------------0----------------
E -0-----------------------------3--




Chords:
A7/C#  GM7/B  D/A  GM7  Em7/B  Em7/A
  0      2     2    2     0      0
  2      0     3    0     0      0
  0      0     2    0     0      0
  2      0     0    0     0      0
  4      2     0    2     2      0
  x      x     x    3     x      x

A6  D/F#  Dsus4/G  DM7
 2   2       3      2
 2   3       3      2
 2   2       2      2
 2   4       0      0
 0   x       0      x
 x   x       3      x


(Riff 1)
D    A7/C#      GM7/B   D/A
mado no naka no boku wa
    GM7   D/A  A 
GURASU no mizu ni
  Em7/B Em7/A A7
sash*ta hana  no you

(Riff 1)
D    A7/C#      GM7/B  D/A
awai hizashi ni yurete
    GM7  D/A  A    Em7/B Em7/A A7
madoromi no soko kizuku  natsu no kehai


(Riff 1)
D  A7/C#  GM7/B  D/A
GM7  D/A  A  Em7/B  Em7/A  A7


(Riff 1)
D     A7/C#       GM7/B   D/A
mujou na tokei no hari wo
   GM7   D/A   A    Em7/B Em7/A
itami no bun dake modoseta    nara
A7
ah

(Riff 2)
D  A7/C#          GM7/B   D/A
okashi na kimi to no hibi wo
   GM7  D/A A   Em7/B  F#sus4 F#
afureru kurai nagameru no  ni


(Riff 3)
     Bm   A6    G   D/F#
This scenery is evergreen
  Em7        A7  Em7      Em7/A A7
midori no ha ga irozuki yuku
  Bm  A6    G     D/F#
komorebi no sh*ta de
  Em7      Em7/A A7 Dsus4/G
kimi ga naite     iru

(Riff 1)
D  A7/C#  GM7/B  D/A
GM7  D/A  A  Em7/B  Em7/A  A7



(Riff 1)
D      A7/C#     GM7/B D/A
yasashii kisetsu wo  yobu
    GM7  D/A  A    Em7/B Em7/A A7
karen na kimi wa mujaki  ni  natsuite

(Riff 2)
D     A7/C#     GM7/B   D/A
sotto karada ni nagareru
   GM7   D/A A    Em7/B  F#sus4 F#
kusuri mitai ni tokete itta     ne



(Riff 3)
     Bm   A6    G   D/F#
This scenery is evergreen
  Em7     A7  Em7      Em7/A A7
hakanai hodo togiresou na
  Bm    A6    G  D/F#
sono te wo tsunaide
  Em7      Em7/A A7 Dsus4/G
hanasanai  you      ni


G  D  G  D
G  D  G  Em7 A7


(Riff 3)
     Bm   A6    G   D/F#
This scenery is evergreen
  Em7    A7  Em7     Em7/A A7
kawaisou ni utsumuiteru
  Bm   A6  G    D/F#
kanashii hitomi wo
  Em7      Em7/A A7  D  DM7
nugutte agetai   no  ni


(Riff 3)
   Bm  A6  G    D/F#
chikazuku owari ni
  Em7      A7  Em7   Em7/A A7
kotoba hitotsu iidasenai
     Bm   A6    G   D/F#
This scenery is evergreen
 Em7    Em7/A A7 Dsus4/G
itoshii hito     yo



© 2001 by hyde
(back)
            
Submit corrections

comments powered by Disqus
↑ Back to top | L Arc En Ciel Tabs for Evergreen Hyde. Lyrics for acoustic guitar and electric guitar. Tablatures and chords are parodies/interpretations of the original songs. You may use it for private study, scholarship, research or language learning purposes only