>
 >
Drivers High

Drivers High Bass Tabs

L Arc En Ciel - Drivers High chords, tabs, tablatures, lyrics

Guitar lessons | Add/correct | Request | Top 50 tabs Artists:  A B C D E F G H I J K L M N O P Q R S T U V W X Y Z 0-9

Drivers High Bass Tabs – L Arc En Ciel

CD, Sheet music, Poster

Do you like Drivers High? Share with your friends now
Bass TabsChordsTabs
Intro:
|-----------------|-----------------|-----------------|-----------------|
|-----------------|-----------------|-----------------|-------------1-2-|
|-0---------------|-2---------------|-----------------|-4---4-4---4-----|
|-----------------|-----------------|-4---------------|-----------------|

|-----------------|-----------------|-----------------|-----------------|
|-----------------|-----------------|-------2---2---4-|-2---1-1-1-2-1---|
|-----------------|-2---------------|-----------------|---------------4-|
|-5---------/(9)\-|-----------------|-0-0-0---0---0---|-----------------|


Pre-verse:
|-----------------|-----------------|-----------------|-----------------|
|-----2---1-2-1---|---4-4-2---1-----|-----1-----1-1---|-----------1-2---|
|-0-------------2-|-------------2---|---------4-----4-|---4-----4-----0-|
|-----------------|---------------4-|---2-------------|-----4-----------|

|-----------------|-----------------|-----------------|-----------------|
|-----2---1-2-1---|---2-2-1---1-----|-------------4-2-|---1-1-1-2-1-----|
|---4-----------2-|-------------2---|-----2---4-------|-------------2-2-|
|-----------------|---------------0-|---0---0---0-----|-----------------|


Verse:
|-----------------|-----------------|-----------------|-----------------|
|-----------------|-----4-2---1-----|-----------------|-----------------|
|-----------------|-2-----------2-2-|-0-0-0-0-0-0-0-0-|-0-0-0-0---0---0-|
|-0-0-0-0-0-0-0-0-|---0-------------|-----------------|---------0---0---|

|-----------------|-----------------|-----------------|-----------------|
|-----------------|-----------------|-----------------|-----4-2---------|
|-4-4-4-4-4-4-4-4-|-2-2-2-2-2-2-2-2-|-0-0-0-0-0-0-0-0-|-0-2-------2---2-|
|-----------------|-----------------|-----------------|-------------0---|

|-----------------|-----------------|-----------------|-----------------|
|-----------------|-----4-2---1-----|-----------------|-----------------|
|-----------------|-2-----------2-2-|-0-0-0-0-0-0-0-0-|-0-0-0-0---0---0-|
|-0-0-0-0-0-0-0-0-|---0-------------|-----------------|---------0---0---|

|-----------------|-----------------|-----------------|-4---2-1---------|
|-----------------|-----------------|-------------2/4-|---------4-2-1---|
|-4-4-4-4-4-4-4-4-|-2-2-2-2---2---2-|-0-0-0-0-0-0-----|---------------2-|
|-----------------|---------0---0---|-----------------|-----------------|

|-------------4-2-|---1-2-1---------|-----------------|-----------------|
|-----------2-----|---------4-2-1---|-----------1-1---|-----------------|
|-----------------|---------------2-|---------------4-|---2-4-2-0-------|
|-3---0-3---------|-----------------|-3-3-0-3---------|-----------4-2-0-|


Line1:
|-----------------|-----------------|-2---------------|-2-----2-------|
|---4-2---2-------|-2-----2-----2-4-|---4-2---2-------|---2-------2---|  7/8
|-------4---4-2-4-|---4-2-----4-----|-------4---4-2-4-|-----4-------4-| <---
|-2---------------|-----------------|-----------------|---------------|


--Pre-verse

--Verse


Line2:
|-----------------|-----------------|-----------------|-----------------|
|-----------------|-----------------|-----------------|-----------------|
|-----------------|-------------2-2-|-0-----0---0-4-2-|-----2-----------|
|-2---2-0---0-2-2-|-4---4-4---4-----|-----0-----------|-----------------|


Chorus:
|-----------------|-----------------|-------2---2-----|-----4-2-2-2-1---|
|-------2---2-----|-----4-2---1-----|-------------2---|---2-----------2-|
|-------------2---|---2---------2---|-0---0-----------|-0---------------|
|-0---0-----------|-0---------------|-----------------|-----------------|

|-----------------|-----------------|-------2---2-----|-----------------|
|-------2---2-----|-----4-2---1-----|-------------2---|-----1---2---4---|
|-------------2---|---2---------2---|-0---0-----------|-2-2---2---2-----|
|-0---0-----------|-0---------------|-----------------|-----------------|

|-----------------|-----4-2---1-----|-----------------|-----9-8-8-------|
|-----------------|---2---------2---|-----------------|---6-------9-6-\-|
|---------------0-|-----------------|---------------4-|-----------------|
|-4---4---4-4-4---|-----------------|-4---4---4-4-4---|-----------------|


--Line1

--Pre-verse (2x)


Bridge:
|-----------------|-----------------|-----------------|-----------------|
|-----------------|-----------------|-----------------|-----------------|
|-0---------------|-2---------------|-----------------|-4-4-4-4---4-4---|
|-----------------|-----------------|-4---------------|-----------------|
                                                  11    10
|-----------------|-----------------|-------2-/---*---|-*-----6---------|
|-----------------|-----------------|-----------------|-------------6-\-|
|-----------------|-----------------|-4---------------|-----------------|
|-2---------------|-4---------------|-----------------|-----------------|

|-----------------|-----------------|-----------------|-----------------|
|-----------------|-------------1---|-----------------|-------------2---|
|-0-----------0---|-2---------------|---------------2-|-4-4-4-4-4-4-----|
|-----------------|-----------------|-4-----------4---|-----------------|

|-----------------|-----------------|-----------------|-----------------|
|-----------------|-----------------|-----------------|-----------------|
|-----------------|-----------------|-2-2-2---2-2---2-|-2---2-2---------|
|-2-0-2-0-2-0-2-0-|-2-0-2-0-2-0-2-0-|-------2-----2---|-----------------|


--Chorus  \
          | 2x
--Line1   /

--Pre-verse


Ending:
|-----------------|-----------------|-----------------|-----------------|
|-----2---1-2-1---|---4-4-2---1-----|-----1-----1-1---|-----------1-2---|
|-0-------------2-|-------------2---|---------4-----4-|---4-----4-----0-|
|-----------------|---------------4-|---2-------------|-----4-----------|

|-----------------|-----------------|---4-2-1---------|-----------------||
|-----2---1-2-1---|---2-2-1---1-----|---------4-2-1---|-----------------||
|---4-----------2-|-------------2---|---------------2-|-----------------||
|-----------------|---------------0-|-----------------|-0---------------||





Comments


Popular L Arc En Ciel tabs & chords
All Dead Bass Tabs
Heavens Drive Bass Tabs
Shi No Hai Bass Tabs
Flower Chords
Hitomino Junin Chords
Loreley Chords
Flower Tabs
Jiyuu E No Shotai Tabs
Kasou Part Ii Tabs
Niji Tabs


Song lyrics



↑ Back to top | Tablatures and chords are parodies/interpretations of the original songs. You may use it for private study, scholarship, research or language learning purposes only
© 2014 AZChords.com Contact us | Privacy policy | DMCA | Add/correct tabs | Request tabs | Top 50 tabs