>
 >
Dive To Blue

Dive To Blue Bass Tabs

L Arc En Ciel - Dive To Blue chords, tabs, tablatures, lyrics

Guitar lessons | Add/correct | Request | Top 50 tabs Artists:  A B C D E F G H I J K L M N O P Q R S T U V W X Y Z 0-9

Dive To Blue Bass Tabs – L Arc En Ciel

CD, Sheet music, Poster

Do you like Dive To Blue? Share with your friends now
Bass TabsChordsTabs
Intro:
|------|------|------|------|------|------|------|---1-2-1-2-1-----|
|------|------|------|-0----|------|------|-0----|-0-----------2---|
|-0----|------|------|------|------|------|------|---------------2-|
|------|-0----|-2----|------|-2----|-0----|------|-----------------|


Pre-verse:              
|-----------------|-----------------|-----------------|-----------------|
|-----------------|-----------------|-----------------|-0-0-0-0-0-------|
|-0-0-0-0-0-0-0-0-|-----------------|-----------------|-----------4-4-0-|
|-----------------|-0-0-0-0-0-0-0-0-|-2-2-2-2-2-2-2-2-|-----------------|

|-----------------|-----------------|-----------------|---1-2-1-2-1-----|
|-----------------|-----------------|-0-0-0-0-0-0-0-0-|-------------2---|
|-----------------|-----------------|-----------------|---------------0-|
|-2-2-2-2-2-2-2-2-|-0-0-0-0-0-0-0-0-|-----------------|-----------------|

                               
Verse:                                                                            
|-----------------|-----------------|-----------------|-----2-------4---||
|*----------------|-----------1-2---|---------------0-|---0---2---2----*||
|*----------0-----|-----------------|-------------0---|---------------0*||
|-------------4-0-|---------------2-|-----------2-----|-----------------||
                                                                 
|-----------------|-----------------|-----------------|-----2-------4---|
|-----------------|-----------------|---------------0-|---4---2---2-----|
|-----------------|-----------------|-------------0---|-----------------|
|---2/(5)---5-4-0-|---2/(7)---7---2-|---2/(5)---5-----|---------------5-|
                                                         
|-----------------|-----------------|-----------------|-----2-------4---|
|-----------------|-----------------|---------------0-|---4---2---2---2-|
|-----------------|-----------------|-------------0---|-----------------|
|---5\(4)---4---0-|---2/(7)---7---2-|---2/(9)---9-----|-----------------|
                                                                            

Pre-chorus:
|-------1---1-----|-----7-9---------|-----------------|-----------------|
|-----------------|-0-7-------7-0---|-----------------|-0-----2---0---0-|
|-4---4-------4---|---------------4-|-2---2-------2---|-----4-------4---|
|-----------------|-----------------|-------2---2-----|-----------------|
                                                    
|-----------------|-----7-9---7-----|-----------------|-----------------|
|-----------------|-0-7---------0---|-----------------|-0-----0---0-----|
|-4---4-------4---|---------------4-|-2---2-------2---|---4---------0-0-|
|-------4---4-----|-----------------|-------2---2-----|-----------------|
                                                      

Chorus:                                                       
|---------------|---------------|---------------|---------------|
|*--------------|---------------|---------------|---------------|     7/8
|*--0---0---0---|---------------|-------------5-|---5-5-5-5/(12)| <------
|-------------0-|---0---0---0-2-|---2---2---2---|---------------|    TIME
                                                    
|-------2---2-----|-----------------|-------2---2-----|-----------------||
|-0---0-------0-0-|-----------------|-0---0-------0-0-|----------------*||
|-----------------|-2---2-------2-2-|-----------------|-2-------------0*||
|-----------------|-------2---2-----|-----------------|---2---2---2-0---||
                                                     

--Pre-verse                                                 

--Verse

--Pre-chorus

--Chorus


Solo:                                                        
|-----------------|-----------------|---------------0-|---0-------------|
|---------------1-|-----------0---3-|-----1---1-3-1---|-----3-3-1-3-1---|
|-0-------0-3-----|-1-------1-------|-3-----3---------|---------------3-|
|-----------------|-----------------|-----------------|-----------------|
                         

Line1:                      
|-----------------|-----------------|---------------0-|-------0---------|
|---------------1-|-----------0---3-|-----------1-3---|---3-------3-3---|
|-0-------0-3-----|-1-------1-------|-3-------3-------|---------------3-|
|-----------------|-----------------|-----------------|-----------------|


--Solo                                                     


Line2:
|-----------------|-----------------|---------------0-|-------0---------|
|---------------1-|-----------0---3-|-----------3-3---|---3-------3-3---|
|-0-------0-3-----|-1-------1-------|-3-------3-------|---------------3-|
|-----------------|-----------------|-----------------|-----------------|


--Solo


Line3:
|-----------------|-----------------|---------------0-|---0-0-0-0-0-0---|
|---------------1-|-----------0-3---|-----------------|-----------------|
|-0-------0-3-----|-1-------1-------|-----------------|-----------------|
|-----------------|---------------3-|---3-3-3-3-3-3---|-----------------|


--Intro

--Pre-verse

--Pre-chorus

--Chorus 2x

--Solo

--Line2


Ending:                                                       
|-----------------|-----------------|-----------------|-----------------|
|---------------1-|-----------0---3-|---------------1-|-----------0-3---|
|-0-------0-3-----|-1-------1-------|-0-------0-3-----|-1-------1-------|
|-----------------|-----------------|-----------------|---------------4-|

|-----------------|-----------------|-----------------|-----------------||
|-----------------|-----------------|-----------------|-----------------||
|-------1-------2-|-------4---------|-6-----6-----6-6-|-------------\---||
|-----------------|-----------------|-----------------|-----------------||





Comments


Popular L Arc En Ciel tabs & chords
Cureless Bass Tabs
Wind Of Gold Bass Tabs
Farewell Chords
Flower Chords
Spirit Dreams Inside Chords
Stay Away Chords
Heavens Drive 2 Tabs
Kasou Part Ii Tabs
Niji Tabs
Ready Steady Go Tabs


Song lyrics



↑ Back to top | Tablatures and chords are parodies/interpretations of the original songs. You may use it for private study, scholarship, research or language learning purposes only
© 2014 AZChords.com Contact us | Privacy policy | DMCA | Add/correct tabs | Request tabs | Top 50 tabs