>
 >
Cureless

Cureless Bass Tabs

L Arc En Ciel - Cureless chords, tabs, tablatures, lyrics

Guitar lessons | Add/correct | Request | Top 50 tabs Artists:  A B C D E F G H I J K L M N O P Q R S T U V W X Y Z 0-9

Cureless Bass Tabs – L Arc En Ciel

CD, Sheet music, Poster

Do you like Cureless? Share with your friends now
Bass Tabs
INTRO

|-----------------|-----------------|-----------------|-----------------|
|-0---------------|-----------------|-----------------|-----------------|
|-----------------|-----------------|-1---------------|-----------------|
|-----------------|-----------------|-----------------|-----------------|

|-----------------|-----------------|-----------------|-----------------|
|-0---------------|-----------------|-----------------|-----------------|
|-----------------|-----------------|-1---------------|---/--(10)-\-----|
|-----------------|-----------------|-----------------|-----------------|

|-----------------|---------3/5-3---|-5---3-3-2-2-3-2-|-0---------------|
|-0---0-----2-3---|-----2-2---------|-----------------|-----3-3-2-2-3-3-|
|-------0---------|-1---------------|-----------------|-----------------|
|-----------------|-----------------|-----------------|-----------------|

|-----------------|---------3/5-3---|-2---3-2---------|-------------------|
|-0---0-----2-3---|-----2-2---------|---------3/5-3-3-|-2-2-3-2-3/5-3-2---|  9/8
|-------0---------|-1---------------|-----------------|-------------------| <---
|-----------------|-----------------|-----------------|-------------------|

VERSE

|-----------------|-----------------|-----------------|-----------------|
|-0-----0---------|---0---0-----0---|-----------------|-----------------|
|-----------0-3/5-|-----------3---3-|-0-----0---------|---0---------0---|
|-----------------|-----------------|-----------0-3/5-|-------0---2-----|

|-------------3/5-|---3---2---------|-----------------|-------0---------|
|-------3---------|-----------3-----|-----------------|-----------3-2-3-|
|-1---------------|-------------5\3-|-----------------|---3-------------|
|-----------------|-----------------|-1-----1---0-3/5-|-5---------------|

|-----------------|-----------------|-----------------|-----------------|
|-0-----0---------|---0---0-----0---|-----------------|-----------------|
|-----------0-3/5-|-----------3---3-|-0-----0---------|---0---------0---|
|-----------------|-----------------|-----------0-3/5-|-------0---2-----|

|-------------3/5-|---3---2---------|-----------------|-------0---------|
|-------3---------|-----------3-----|-----------------|-----------3-2---|
|-1---------------|-------------5\3-|-----------------|---3-----------3-|
|-----------------|-----------------|-1-----1---0-3/5-|-5---------------|


PRE-CHORUS

|-----------------|-3-3-------3-----|-3/5---3-----2---|---2---2-2-0---0-|
|-------0-----2-3-|-------3-----3---|-----------------|-------------3---|
|-1---------1-----|-----------------|-----------------|-----------------|
|-----------------|-----------------|-----------------|-----------------|

|-2---------------|-------------2---|-2-3-2-5-3-2-3-2-|-2-0-0---0-------|
|-----------------|---------0-------|-----------------|-------3---3-2---|
|-------5/7-------|-0---------------|-----------------|-----------------|
|-------------8---|-----------------|-----------------|-----------------|

|-----------------|-3-3-3-----3---3-|-3/5---3-----2---|---2---2-2-0---0-|
|-------0-----2-3-|-------3-----3---|-----------------|-------------3---|
|-1---1-----1-----|-----------------|-----------------|-----------------|
|-----------------|-----------------|-----------------|-----------------|

|-2---------------|---------------|-----------------|-----------------|
|-----------------|-------7-------|-----------------|-----------------|
|-------5/7-------|-0-0-7-----7-7-|---------0-------|-1---------------|
|-------------8---|---------------|-3---------------|-----------------|
                   \-----7/8-----/
CHORUS

|-----------------|-----------------|-----------------|-------------------|
|-----------------|-----------------|-----------------|-0---2-0-----0-----|  9/8
|-2---2-2---2-2-2-|-----------------|-0---0-0---0-0-0-|---------4-----4-0-| <---
|-----------------|-3---3-3---3-3-3-|-----------------|-------------------|

|-----------------|-----------------|-----------------|---------------|
|-------0---0-5-0-|-----0-5---0-----|-----------------|---4-----------|  7/8
|-----------------|-----------------|-------4---4-2-4-|-4-----4-4-2-4-| <---
|-3---3-----------|-1-1---------0-1-|-2-2-2-----------|---------------|

|-----------------|-----------------|-----------------|-------------------|
|-----------------|-----------------|-----------0-0---|-0---2-0-----0-----|  9/8
|-2---2-2---2-2-2-|-----------------|-0---0-4-------0-|---------4-----4-0-| <---
|-----------------|-3---3-3---3-3-3-|-----------------|-------------------|

|-----------------|-----------------|-----------------|---------------|
|-------0---0-5-0-|-----0-5---0-----|-----------------|---4-----------|  7/8
|-----------------|-----------------|-------4---4-2-4-|-4-----4-4-2-4-| <---
|-3---3-----------|-1-1---------0-1-|-2-2-2-----------|---------------|

BRIDGE

|-----------------|-----------------|-----------------|-------------------|
|-----------------|-----0-----0-----|-----------------|-----0-----2-0-----|  9/8
|-2---2-2---------|-0-----4-0---4-0-|-2---2-2---------|-0-----4-0-----4---| <---
|-----------3---3-|-----------------|-----------3---3-|-------------------|

VERSE

|-----------------|-----------------|-----------------|-----------------|
|-0-----0---------|---0---0-----0---|-----------------|-----------------|
|-----------0-3/5-|-----------3---3-|-0-----0---------|-------------0---|
|-----------------|-----------------|-----------0-3/5-|---0---0---2-----|

|-------------3/5-|---3---2---------|-----------------|-------0---------|
|-------3---------|-----------3-----|-----------------|-----------3-2-3-|
|-1---------------|-------------5\3-|-----------------|---3-------------|
|-----------------|-----------------|-1-----1---0-3/5-|-5---------------|

|-----------------|-----------------|-----------------|-----------------|
|-0-----0---------|---0---0-----0---|-----------------|-----------------|
|-----------0-3/5-|-----------3---3-|-0-----0---------|-------------0---|
|-----------------|-----------------|-----------0-3/5-|---0---0---2-----|

|-----------3---3-|-3/5---3---2-----|-----------------|-------0---------|
|-------3-----3---|-------------3\--|-----------------|-----------3-2---|
|-1---------------|-----------------|-----------------|---3-------------|
|-----------------|-----------------|-1-----1---0-3/5-|-5---------------|

PRE-CHORUS

|-----------------|-3-3-------3-----|-3/5---3-----2---|---2---2-2-0---0-|
|-------0-----2-3-|-------3-----3---|-----------------|-------------3---|
|-1---------1-----|-----------------|-----------------|-----------------|
|-----------------|-----------------|-----------------|-----------------|

|-2---------------|-------------2---|-2-3-2-5-3-2-3-2-|-2-0-0---0-------|
|-----------------|---------0-------|-----------------|-------3---3-2---|
|-------5/7-------|-0---------------|-----------------|-----------------|
|-------------8---|-----------------|-----------------|-----------------|

|-----------------|-3-3---3-----3/5-|-5-----3-----2---|---2---2-2-0---0-|
|-------0-----2-3-|-----3-----3-----|-----------------|-------------3---|
|-1---1-----1-----|-----------------|-----------------|-----------------|
|-----------------|-----------------|-----------------|-----------------|

|-2---------------|---------------|-----------------|-----------------|
|-----------------|-------7-------|-----------------|-----------------|
|-------5/7-------|-0-0-7-----7-7-|---------0-------|-1---------/---\-|
|-------------8---|---------------|-3---------------|-----------------|
                   \-----7/8-----/
CHORUS

|-----------------|-----------------|-----------------|-------------------|
|*----------------|-----------------|-----------------|-0---2-0-----0-----|  9/8
|*2---2-2---2-2-2-|-----------------|-0---0-0---0-0-0-|---------4-----4-0-| <---
|-----------------|-3---3-3---3-3-3-|-----------------|-------------------|

|-----------------|-----------------|-----------------|---------------||
|-------0---0-5-0-|-----0-5---0-----|-----------------|---4----------*||  7/8
|-----------------|-----------------|-------4---4-2-4-|-4-----4-4-2-4*|| <---
|-3---3-----------|-1-1---------0-1-|-2-2-2-----------|---------------||

BRIDGE

|-----------------|-----------------|-----------------|-----------------|
|-0---------------|-----------------|-----------------|-----------------|
|-----------------|-----------------|-1---------------|-----------------|
|-----------------|-----------------|-----------------|-----------------|

|-----------------|-----------------|-----------------|-----------------|
|-0---------------|-----------------|-----------3-----|-------3-/-8-8---|
|-----------------|-----------------|-1---------------|---4-------------|
|-----------------|-----------------|-----------------|-----------------|

|-----------------|-----------------|-----------------|-----------------|
|-0---------------|-----------------|-----------------|-----------------|
|-----------------|-----------------|-1---------------|-----------------|
|-----------------|-----------------|-----------------|-----------------|

|-----------------|-----------------|-----------------|-------------------|
|-0---------------|-----------------|-----------------|-------------------|  9/8
|-----------------|-----------------|-1---------------|-------------------| <---
|-----------------|-----------------|---------------2-|-/------(15)-\-----|

SOLO

|-----------------|-----------2-2-2-|-----------------|-----------------|
|-------4---0-4-0-|-----5-4---------|-----------0-0-2-|---0-0-----0-----|
|-2---2-----------|-----------------|-0-0-0-4---------|-------4-----4-0-|
|-----------------|-3-3-------------|-----------------|-----------------|

|-----------------|-----------2-----|-2-2-2-----------|-----------------|
|-------4---0-4-0-|-----5-4-----5-\-|-------2---2-0---|---0-0-----------|
|-2---2-----------|-----------------|-----------------|-4-----0---------|
|-----------------|-3-3-------------|-----------------|-----------3-2-3-|

|-----------------|-----------2-----|-----------------|-----------------|
|-------4---0-4-0-|-----5-4-----5-\-|---------------0-|-2-0---0---0-----|
|-2---2-----------|-----------------|-0-0-0-4---0-4---|-----4-------4-0-|
|-----------------|-3-3-------------|-----------------|-----------------|

|-----------------|-----------2-----|-2-2-2-----------|---------------|
|-------4---0-4-0-|-----5-4-----5-\-|-------2---2-0---|---0-----2-0---|  7/8
|-2---2-----------|-----------------|-----------------|-4-----4-----4-| <---
|-----------------|-3-3-------------|-----------------|---------------|

|-----------------|-----------------|-----------------|-----------------|
|-----------------|-0-------2-------|-0-------2-------|-3-------5---/-\-|
|-2-------4-------|-----------------|-----------------|-----------------|
|-----------------|-----------------|-----------------|-----------------|

CHORUS

|-----------------|-----------------|-----------------|-------------------|
|-----------------|-----------------|-----------0-0---|-0---2-0-----0-----|  9/8
|-2---------/---\-|-----------------|-0---0-4-------0-|---------4-----4-0-| <---
|-----------------|--3--3--3--3--3--|-----------------|-------------------|

|-----------------|-----------------|-----------------|---------------|
|-------0---0-5-0-|-----0-5---0-----|-----------------|---4-----------|  7/8
|-----------------|-----------------|-------4---4-2-4-|-4-----4-4-2-4-| <---
|-3---3-----------|-1-1---------0-1-|-2-2-2-----------|---------------|

|-----------------|-----------------|-----------------|-------------------|
|*----------------|-----------------|-----------0-0---|-0---2-0-----0-----|  9/8
|*2---2-2---2-2-2-|-----------------|-0---0-4-------0-|---------4-----4-0-| <---
|-----------------|-3---3-3---3-3-3-|-----------------|-------------------|

|-----------------|-----------------|-----------------|---------------||
|-------0---0-5-0-|-----0-5---0-----|-----------------|---4----------*||  7/8
|-----------------|-----------------|-------4---4-2-4-|-4-----4-4-2-4*|| <---
|-3---3-----------|-1-1---------0-1-|-2-2-2-----------|---------------||

BRIDGE

|-----------------|-----------------|-----------------|-------------------|
|-----------4-\---|-----------------|-----------------|-0---2-0-----0-----|  9/8
|-2-----/-(5)-----|-----------------|-----------------|---------4-----4-0-| <---
|-----------------|-3---------------|-5---------/---\-|-------------------|

|-----------------|-----------------|-----------------|---------------|
|-----------------|-----------------|-----------------|---------------|  7/8
|-----------------|-----------------|---------4-/-----|-9-9-9-9-9-0-0-| <---
|-2---------------|-0-----/---\-----|-2---------------|---------------|

ENDING

|-----------------|-----------------|-----------------|-------------------|
|*----------------|-----------------|-----------0-0---|-0---2-0-----0-----|  9/8
|*2---2-2---2-2-2-|-----------------|-0---0-4-------0-|---------4-----4-0-| <---
|-----------------|-3---3-3---3-2-3-|-----------------|-------------------|

|-----------------|-----------------|-----------------|---------------||
|-------0---0-5-0-|-----0-5---0-----|-----------------|---4----------*||  7/8
|-----------------|-----------------|-------4---4-2-4-|-4-----4-4-2-4*|| <---
|-3---3-----------|-1-1---------0-1-|-2-2-2-----------|---------------||

|-----------------|-----------------|-------2---0-0---|-------------------|
|-------4---0-0-2-|-------5---4-4-5-|---------------4-|-0---2-0-----0-----|  9/8
|-2---2-----------|-----------------|-0---0-----------|---------4-----4-0-| <---
|-----------------|-3---3-----------|-----------------|-------------------|

|-----------------|-----------------|-----------------|---------------|
|-5---5-0---0-----|-2-2-2-----------|-----------------|---4-----------|  7/8
|-----------------|-------2---2-----|-------4---4-2-4-|-4-----4-4-2-4-| <---
|-------------3---|-------------0---|-2-2-2-----------|---------------|

|-----------------|-----------------|-------2---0-0---|-------------------|
|-------4---0-0-2-|-------5---4-4-5-|---------------4-|-0---2-0-----0-----|  9/8
|-2---2-----------|-----------------|-0---0-----------|---------4-----4-0-| <---
|-----------------|-3---3-----------|-----------------|-------------------|

|-----------------|-----------------|-----------------|---------------||
|-5---5-0---0-----|-2-2-2-----------|-----------------|---4-4-4-------||  7/8
|-----------------|-------2---2-----|-------4---4-2-4-|-4-------4-2-4-|| <---
|-------------3---|-------------0---|-2-2-2-----------|---------------||

|-----------------||
|-----------------||
|-2---------------||
|-----------------||





Comments


Popular L Arc En Ciel tabs & chords
All Dead Bass Tabs
Heavens Drive 1 Bass Tabs
Wind Of Gold Bass Tabs
4th Avenue Cafe Chords
Blurry Eyes Chords
Dive To Blue Chords
Fate Chords
Hitomino Junin Chords
4th Avenue Cafe Intro Tabs
Jiyuu E No Shotai Tabs


Song lyrics



↑ Back to top | Tablatures and chords are parodies/interpretations of the original songs. You may use it for private study, scholarship, research or language learning purposes only
© 2014 AZChords.com Contact us | Privacy policy | DMCA | Add/correct tabs | Request tabs | Top 50 tabs