>
 >
Blurry Eyes

Blurry Eyes Bass Tabs

L Arc En Ciel - Blurry Eyes chords, tabs, tablatures, lyrics

Guitar lessons | Add/correct | Request | Top 50 tabs Artists:  A B C D E F G H I J K L M N O P Q R S T U V W X Y Z 0-9

Blurry Eyes Bass Tabs – L Arc En Ciel

CD, Sheet music, Poster

Do you like Blurry Eyes? Share with your friends now
Bass TabsChordsTabs
INTRO

|-----------------|-----------------|-----------------|-----------------|
|-0---------------|-----------------|-----------------|-----------------|
|-----------------|-4---------------|-2---------------|-/(10)-----------|
|-----------------|-----------------|-----------------|-----------------|

|-0---------------|-----------------|-----------------|-----------------|
|-----------------|-4---------------|-2-----------2/--|-5-5-5-4-4-2-0---|
|-----------------|-----------------|-----------------|-----------------|
|-----------------|-----------------|-----------------|-----------------|

SPEED

|-----------------|-----------------|-----------------|-------------0---|
|---0-2---0-------|---0-2---0-------|---4---4-------4-|---4-------4-----|
|-0---------4-4---|-0---------4-2---|-2---2---2---2---|-2---2---2-------|
|-----------------|-----------------|-----------------|-----------------|

|---0-2---0-------|---0-2---0-------|-----------------|-----------------|
|-0---------4-4---|-0---------4-2---|-2---2---2---2---|-2---2-----------|
|-----------------|-----------------|---0-------0-----|---0---0-0-2-4---|
|-----------------|-----------------|-----------------|-----------------|

|-----------------|-----------------|-----------------|-------------0---|
|---0-2---0-------|---0-2---0-------|---4---4-------4-|---4-------4-----|
|-0---------4-4---|-0---------4-2---|-2---2---2---2---|-2---2---2-------|
|-----------------|-----------------|-----------------|-----------------|

|---0-2---0-------|---0-2---0-------|---2-------2-----|---------0-0-----|
|-0---------4-4---|-0---------4-2---|-2---2---2---2---|-2/(7)-7-----4-4-|
|-----------------|-----------------|-----------------|-----------------|
|-----------------|-----------------|-----------------|-----------------|

|-----------------|-----------------|-----------------|-2-0-------------|
|-0---0-----------|-0---------------|-0-------0-----0-|-------4---4-2---|
|-------0---0-4---|-------0-----4---|-----0-4-----0---|-----------------|
|-----------------|-----------------|-----------------|-----------------|

VERSE

|-----------------|-----------------|-----------------|-----------------|
|-0---0-4---4-0---|-----------------|-------0---0-----|-------0---2-4---|
|-----------------|-0---0-4---4-0---|-2---2-------2---|-2---2-----------|
|-----------------|-----------------|-----------------|-----------------|

|-----------------|-----------------|-----------------|-----------------|
|-----------------|-------------0---|-----------------|---0-------------|
|-------2---2-----|-------2---2-----|-0---0-4---4-0---|-4-----4---4-0---|
|-3---3-------3---|-3---3-----------|-----------------|-----------------|

|-----------------|-----------------|-----------------|-----------------|
|-0---0-4---4-0---|-----------------|-------0---0-----|-------0-----0-2-|
|-----------------|-0---0-4----4-0--|-2---2-------2---|-2---2-----2-----|
|-----------------|-----------------|-----------------|-----------------|

|-----------------|-----------------|-2-0-----0-------|-----------------|
|-----------------|-------------4---|-------4---4---2-|-4-2---2---0-----|
|-------2---2-----|-------2---2-----|-----------------|-----4-------4---|
|-3---3-------3---|-3---3-----------|-----------------|-----------------|

BRIDGE

|-----------------|-----------------|-----------------|-----------------|
|-----------------|-----------------|-----------------|-----------------|
|-----------------|-----------------|-----------------|-----------------|
|-3---3\----------|-----------2h3---|-2-2---2-------/-|--(9)------------|

|-----------------|-----------------|-----------------|-----------------|
|-----------------|-----------------|---------------2-|---0-------0-----|
|-----------------|-----------------|-----------------|-------4-----4---|
|-3---3\----------|-----------2h3---|-2-2---2---------|-----------------|

|-----------------|-----------------|-----------------|-----------------|
|-------0---0-----|-------0---0-----|-------2---2-----|-------2---2-----|
|-----------------|-----------------|-0---0-------0---|-1---1-------1---|
|-3---3-------3---|-4---4-------4---|-----------------|-----------------|

VERSE

|-----------------|-----------------|-----------------|-----------------|
|-0---0-4---4-0---|-------------2---|-----0-4---4-2---|-0---2-0---0-----|
|-----------------|-0---0-4---4-----|-2---------------|-------------0---|
|-----------------|-----------------|-----------------|-----------------|

|-----------------|-----------------|-----------------|-----------------|
|-----------------|-------------0---|-------2---2-0---|---0-------------|
|-------2---2-----|-------2---2-----|-0---4-----------|-4-----4---4-0---|
|-3---3-------3---|-3---3-----------|-----------------|-----------------|

|-----------------|-----------------|-----------------|-----------------|
|-0---0-4---4-0---|-------------2---|-----0-4---4-2---|-----0-2---0-----|
|-----------------|-0---0-4---4-----|-2---------------|-4-----------4---|
|-----------------|-----------------|-----------------|-----------------|

|-----------------|-----------------|-2-0---2---------|-----------------|
|-----------------|-------------4---|-----4---2-4---2-|-0-2-0---2-0-----|
|-------2---2-----|-------2---2-----|-------------4---|-------4-----4---|
|-3---3-------3---|-3---3-----------|-----------------|-----------------|

BRIDGE

|-----------------|-----------------|-----------------|-----------------|
|-----------------|-----------------|-----------------|-2---2\----------|
|-----------------|-----------------|-----------------|-----------------|
|-3---3\----------|-----------2h3---|-2-2---2/--------|-----------------|

|-----------------|-----------------|-----------------|-----------------|
|-----------------|-----------------|-------------0-2-|---0-------0-----|
|-----------------|-----------------|-----------------|-------4-----4---|
|-3---3\----------|-----------2h3---|-2-2---2---------|-----------------|

|-----------------|-----------------|-----------------|-----------------|
|-------0---0-----|-------0---0-----|-------2---2-----|-------2---2-----|
|-----------------|-----------------|-0---0-------0---|-1---1-------1---|
|-3---3-------3---|-4---4-------4---|-----------------|-----------------|

|-------------4---|-2-0-------0-----|-4-2-0-2---0-----|-----------------|
|-----0-4---4-----|-------2-----2---|---------4---4-2-|-2-4-2-0---0-----|
|-2---------------|-----------------|-----------------|---------4---4---|
|-----------------|-----------------|-----------------|-----------------|

CHORUS

|-----------------|-----------------|-----------------|-----------------|
|-0---0-----------|-0---0-4---4-0---|-----------------|-----------------|
|-------0---0-4---|-----------------|-0---0-4---4-0---|-1---1-4---4-1/--|
|-----------------|-----------------|-----------------|-----------------|

|-----------------|-----------------|-----------------|-----------------|
|-----0-----0-----|-----0-----0-----|-------0---0---0-|-2---2-0---0-----|
|-2-----1-----1---|-0---------------|-----4-------4---|-------------4---|
|-----------------|-------4-----4---|-3---------------|-----------------|

|-----------------|-----------------|-----------------|-----------------|
|-0---0-----------|-0---0-4---4-0---|-------------0---|-2---0-----0-----|
|-------0---0-4---|-----------------|-0---0-4---4-----|-------4-----4---|
|-----------------|-----------------|-----------------|-----------------|

|-----------------|-----------------|-----------------|-----------------|
|-----0-----0-----|-----0-----0-----|-------0---0---0-|-2---2-0---------|
|-2-----1-----1---|-0---------------|-----4-------4---|-----------0-4/--|
|-----------------|-------4-----4---|-3---------------|-----------------|

FILL+SOLO

|-----------------|-7---7---7---7---|-7-7-----7-7-----|-7-7-----6-7\----|
|-----------------|-----------------|-----------------|-----------------|
|-5---------------|-----------------|-----------------|-----------------|
|-----------------|-----------------|-----------------|-----------------|

|-----------------|-----------------|-----------------|-----------------|
|-----------------|-----------------|-----------------|-----------------|
|---0h4---0h4---0-|---0h4---0h4---0-|---0h4---0h4---0-|---0h4---0h4---0-|
|-2-----2-----2---|-2-----2-----2---|-2-----2-----2---|-2-----2-----2---|

|-----------------|-----------------|-----------------|-----------------|
|-----------------|-----------------|-----------------|-------------2---|
|-----------------|-----------------|-0-0---0---------|-----------2-----|
|-3---3-----------|-----------------|-----------------|-----------------|

|-----------------|-----------------|-----------------|-1h2---2-2-0-----|
|-----------------|-------------2---|-----------------|-------------4---|
|-----------------|-----------2-----|-0-0---0---------|-----------------|
|-3---3-----------|-----------------|-----------------|-----------------|

|-----------------|-----------------|-----------------|-----------------|
|-------0---0-----|-------0---0-----|-------2---2-----|-------2---2-----|
|-----------------|-----------------|-0---0-------0---|-1---1-------1---|
|-3---3-------3---|-4---4-------4---|-----------------|-----------------|

|-----------------|-----------------|-----------------|-----------------|
|-----0-----0---0-|-----0-----0---0-|-----2-----2---2-|-----2-----2---2-|
|-----------------|-----------------|-0-0---0-0---0---|-1-1---1-1---1---|
|-3-----3-----3---|-4-----4-----4---|-----------------|-----------------|

|-4-----0-----|-2-----------|-4-----0-----|-2-----------|
|-------------|-------4-----|-------------|-------4-----|
|-------------|-------------|-------------|-------------|
|-------------|-------------|-------------|-------------|       3 / 4
                                                           <---------
|-4-----0-----|-2-----------|-4-----0-----|-2-2-2-------|        TIME
|-------------|-------4-----|-------------|-------4-----|
|-------------|-------------|-------------|-------------|
|-------------|-------------|-------------|-------------|

|-------------|
|-------------|
|-------------|
|-------------|

INTRO

|-----------------|-----------------|-----------------|-----------------|
|-0---------------|-----------------|-----------------|-----------------|
|-----------------|-4---------------|-2-----------2/--|--(10)-----------|
|-----------------|-----------------|-----------------|-----------------|

|-0---------------|-----------------|-----------------|-----------------|
|-----------------|-4---------------|-2\------------5-|---5---4-4-2-0---|
|-----------------|-----------------|-----------------|-----------------|
|-----------------|-----------------|-----------------|-----------------|

SPEED

|-----------------|-----------------|-----------------|-------------0---|
|---0-2---0-------|---0-2---0-------|---4---4-------4-|---4-------4-----|
|-0---------4-4---|-0---------4-2---|-2---2---2---2---|-2---2---2-------|
|-----------------|-----------------|-----------------|-----------------|

|---0-2---0-------|---0-2---0-------|-----------------|---2-0-----0-2\--|
|-0---------4-4---|-0---------4-2---|-2---2---2-------|-0-----4---------|
|-----------------|-----------------|-----------0-0---|-----------------|
|-----------------|-----------------|-----------------|-----------------|

CHORUS

|-----------------|-----------------|-----------------|-----------------|
|-0---0-----------|-0---0-4---4-0---|-----------------|-----------------|
|-------0---0-4---|-----------------|-0---0-4---4-0---|-1---1-4---4-1/--|
|-----------------|-----------------|-----------------|-----------------|

|-----------------|-----------------|-----------------|-----------------|
|-----0-----0-----|-----0-----0-----|-------0---0---0-|-2---2-0---0-----|
|-2-----1-----1---|-0---------------|-----4-------4---|-------------4---|
|-----------------|-------4-----4---|-3---------------|-----------------|

|-----------------|-----------------|-----------------|-----------------|
|-0---0-----------|-0---0-4---4-0---|-------------0---|-2---0-----0-----|
|-------0---0-4---|-----------------|-0---0-4---4-----|-------4-----4---|
|-----------------|-----------------|-----------------|-----------------|

|-----------------|-----------------|-----------------|-2---2-0---0-----|
|-----0-----0-----|-----0-----0-----|-------0---0---0-|-------------4---|
|-2-----1-----1---|-0---------------|-----4-------4---|-----------------|
|-----------------|-------4-----4---|-3---------------|-----------------|

|-----------------|-----------------|-----------------|-----------------|
|-0---0-----------|-0---0-4---4-0---|-------------0---|-2---0-----0-----|
|-------0---0-4---|-----------------|-0---0-4---4-----|-------4-----4---|
|-----------------|-----------------|-----------------|-----------------|

|-----------------|-----------------|-----------------|-----------------|
|-----0-----0-----|-----0-----0-----|-------0---0---0-|-2---2-0---0-----|
|-2-----1-----1---|-0---------------|-----4-------4---|-------------4---|
|-----------------|-------4-----4---|-3---------------|-----------------|

|-----------------|-----------------|-----------------|-----------------|
|-0---0-----------|-0---0-4---4-0---|-----------------|-----------------|
|-------0---0-4---|-----------------|-0---0-4---4-0---|-1---1-4---4-1/--|
|-----------------|-----------------|-----------------|-----------------|

|-----------------|-----------------|-----------------|-2-2-2-2-0-0-----|
|-----0-----0-----|-----0-----0-----|-------0---0---0-|-------------4---|
|-2-----1-----1---|-0---------------|-----4-------4---|-----------------|
|-----------------|-------4-----4---|-3---------------|-----------------|

ENDING

|-----------------|-----------------|-----------------|-----------------||
|*----------------|-----------------|-----------------|----------------*||
|*2-2-2-2-2-2-2-2-|-----------------|-0-0-0-0-0-0-0-0-|----------------*||
|-----------------|-3-3-3-3-3-3-3-3-|-----------------|-2-2-2-2-2-2-2-2-||

|-----------------|-----------------|-----------------|-----------------||
|*----------------|-----------------|-----------------|----------------*||
|*2-2-2-2---2-2-2-|-----------------|-0-0-0-0---0-0-0-|----------------*||
|-----------------|-3-3-3-3---3-3-3-|-----------------|-2-2-2-2---2-2-2-||

|-4-----0-----|-2-----------|-4-----0-----|-2-----------|
|-------------|-------4-----|-------------|-------4-----|
|-------------|-------------|-------------|-------------|
|-------------|-------------|-------------|-------------|       3 / 4
                                                           <---------
|-4-----0-----|-2-----------|-4-----0-----|-2-2-2-------||       TIME
|-------------|-------4-----|-------------|-------4-----||
|-------------|-------------|-------------|-------------||
|-------------|-------------|-------------|-------------||





Comments


Popular L Arc En Ciel tabs & chords
In The Air Bass Tabs
Perfect Blue Bass Tabs
Existence Chords
Farewell Chords
Blurry Eyes Tabs
Daybreaks Bell Tabs
Dive To Blue Tabs
Evergreen Hyde Tabs
Fate Tabs
Jiyuu E No Shoutai Tabs


Song lyrics



↑ Back to top | Tablatures and chords are parodies/interpretations of the original songs. You may use it for private study, scholarship, research or language learning purposes only
© 2014 AZChords.com Contact us | Privacy policy | DMCA | Add/correct tabs | Request tabs | Top 50 tabs