>
 >
Blame

Blame Bass Tabs

L Arc En Ciel - Blame chords, tabs, tablatures, lyrics

Guitar lessons | Add/correct | Request | Top 50 tabs Artists:  A B C D E F G H I J K L M N O P Q R S T U V W X Y Z 0-9

Blame Bass Tabs – L Arc En Ciel

CD, Sheet music, Poster

Do you like Blame? Share with your friends now
Bass Tabs
Intro:
|-----------------|
|-------------1---|
|---------------2-|
|-----------------|

|-----------------|-----------------|-----------------|-----------------|
|---------2-0---0-|-----------------|---------0---0---|---------------0-|
|-----3-------3---|-----------------|-----------2---3-|---0-------2-3---|
|---0-------------|---3-----------0-|---0-3-----------|-----------------|

|-----------------|-----------------|-----------------|-----------------|
|---------2-0---0-|-----------------|---------2-----0-|-----------------|
|-3---3-------3---|---------------0-|-----3-------3---|---3---2---3-2---|
|---2-------------|---3-------0-3---|-----------------|---------------3-|


Verse-1:
|-----------------|-----------------|-----------------|-----------------|
|*--------2-0---0-|-----------------|---------0---0---|---------------0-|
|*----3-------3---|-----------------|-----------2---3-|---0-------2-3---|
|-0-0-------------|---3-----------0-|---0-3-----------|-----------------|

|-----------------|-----------------|-----------------|-----------------||
|---------2-0---0-|-----------------|-----------------|----------------*||
|-3---3-------3---|---------------0-|---2-3-0-2-3-0-2-|-3-0-2-3-0-2-3--*||
|---2-------------|---3-------0-3---|-----------------|---------------4\||


Verse-2:
|-----------------|-----------------|-----------------|-----------------|
|---------2-0---0-|-----------------|---------0---0---|---------------0-|
|-----3-------3---|-----------------|-----------2---3-|---0-------2-3---|
|-0-0-------------|---3-----------0-|---0-3-----------|-----------------|

|-----------------|-----------------|-----------------|-----------------|
|---------2-0---0-|-----------------|-----2-----2-----|-2-----2-0-------|
|-3---3-------3---|---------------0-|---3---0-3---0-3-|---0-3-----3-2---|
|---2-------------|---3-------0-3---|-----------------|---------------3\|


Chorus:
|-----------------|-----------------|-----------------|-----------------|
|---------2-2-0---|-----------------|---------0-0-----|---------------0-|
|-----3---------3/|(5)--------------|-------------2-5\|(3)0---0---2-3---|
|---0-------------|---3---3---0-3-0-|---0-3-----------|-----------------|

|-----------------|-----------------|-----------------|-----------------|
|---------2-2-0---|-----------------|-----2-----2-----|-2-----2-----2---|
|-----3---------3/|(5)------------0-|---3---0-3---0-3-|---0-3---0-3---3-|
|---0-------------|---3---3---0-3---|-----------------|-----------------|

|-----------------|-----------------|-----------------|-----------------|
|---------2-2-0---|-----------------|---------0-0-----|---------------0-|
|-2---3---------3/|(5)--------------|-------------2-5\|(3)0---0---2-3---|
|---2-------------|---3---3---0-3-0-|---0-3-----------|-----------------|

|-----------------|-----------------|-----------------|-----------------|
|---------2-2-0---|-----------------|-----2-----2-----|-2-----2-0-------|
|-----3---------3/|(5)------------0-|---3---0-3---0-3-|---0-3-----3-2---|
|---0-------------|---3---3---0-3---|-----------------|---------------3-|

                          |-----------------|
--Verse-2 ------> ending: |-2-----2-----2---|
                          |---0-3---0-3---3-|
--Verse-2 (2x)            |-----------------|

--Chorus (2x)


Chorus-variant:
|-----------------|-----------------|-----------------|-----------------|
|---------2-2-0---|-----------------|---------0-0-----|---------------0-|
|-----3---------3/|(5)--------------|-------------2-5\|(3)0---0---2-3---|
|---0-------------|---3---3---0-3-0-|---0-3-----------|-----------------|
                                                        17  17  17  17
|-----------------|-----------------|-----------------|-----------17----|
|---------2-2-0---|-----------------|-----2-----2-----|-----------------|
|-----3---------3/|(5)------------0-|---3---0-3-------|-----------------|
|---0-------------|---3---3---0-3---|-------------5-/-|-*---*---*-*-*-\-|

|-----------------|-----------------|-----------------|-----------------|
|*--------2-2-0---|-----------------|---------0-0-----|---------------0-|
|*2---3---------3/|(5)--------------|-------------2-5\|(3)0---0---2-3---|
|---2-------------|---3---3---0-3-0-|---0-3-----------|-----------------|

|-----------------|-----------------|-----------------|-----------------||
|---------2-2-0---|-----------------|-----2-----2-----|-2-----2-0------*||
|-----3---------3/|(5)------------0-|---3---0-3---0-3-|---0-3-----3-2--*||
|---0-------------|---3---3---0-3---|-----------------|---------------3-||


--Chorus


Ending:
|-----------------|-----------------|-----------------|-----------------|
|---------2-2-0---|-----------------|---------0-0-----|---------------0-|
|-2---3---------3/|(5)--------------|-------------2-5\|(3)0---0---2-3---|
|---2-------------|---3---3---0-3-0-|---0-3-----------|-----------------|

|-----------------|-----------------|-----------------|-----------------|
|---------2-2-0---|-----------------|-----2-----2-----|-2-----2-0-------|
|-----3---------3/|(5)------------0-|---3---0-3---0-3-|---0-3-----3-2---|
|---0-------------|---3---3---0-3---|-----------------|---------------1-|

|-----------------|-----------------|-----------------|-----------------|
|*--------3-3---5-|---5-3-3-2-2-3---|---------0-------|-----------------|
|*----3-3-----3---|-----------------|-----------3-2-3-|---2---0---2-3---|
|---1-------------|---------------0-|---0-3-----------|---------------1-|

|-----------------|-----------------|-----------------|-----------------||
|---------3-----5-|---3-3-2-3-2-3---|-----------------|---0-0----------*||
|-----3-3---3-3---|---------------0-|---0-2---2-2-2-3-|-------3---2-3--*||
|---1-------------|-----------------|-----------------|---------------1-||





Comments


Popular L Arc En Ciel tabs & chords
Heavens Drive 1 Bass Tabs
Love Flies 1 Bass Tabs
Perfect Blue Bass Tabs
Bless Chords
Flower Chords
Hello Chords
Stay Away Chords
Vivid Colors Chords
Jiyuu E No Shoutai Tabs
Kasou Part I Tabs


Song lyrics



↑ Back to top | Tablatures and chords are parodies/interpretations of the original songs. You may use it for private study, scholarship, research or language learning purposes only
© 2014 AZChords.com Contact us | Privacy policy | DMCA | Add/correct tabs | Request tabs | Top 50 tabs