>
 >
Birth

Birth Bass Tabs

L Arc En Ciel - Birth chords, tabs, tablatures, lyrics

Guitar lessons | Add/correct | Request | Top 50 tabs Artists:  A B C D E F G H I J K L M N O P Q R S T U V W X Y Z 0-9

Birth Bass Tabs – L Arc En Ciel

CD, Sheet music, Poster

Do you like Birth? Share with your friends now
Bass Tabs
Intro:
|-----------------|
|-----------------|
|-------------5-\-|
|-----------------|

|-----------------|-----------------|-----------------|-----------------|
|-0---0-0---0-0-0-|-----------------|-0---0-0---0-0-0-|-------------2---|
|-----------------|-0---0-0---0-0-0-|-----------------|-0---0-0---0---0-|
|-----------------|-----------------|-----------------|-----------------|


Pre-verse:                                              12    12  11
|-----------------|-----------------|-----------------|---10--*---*-12--|
|-0---0-0---0-0-0-|-----------------|-0---0-0---0-5-/-|-*-*-9-------*-\-|
|-----------------|-0---0-0---0-0-0-|-----------------|-----------------|
|-----------------|-----------------|-----------------|-----------------|


Verse:                                              10   10   10  12
|-----------------|-----------------|-----------------|-----------*-12--|
|-0---0-0---0-0-0-|-----------------|-0---0-0---0-7-*-|-*-9-7-*-----*-\-|
|-----------------|-0---0-0---0-0-0-|-----------------|-----------------|
|-----------------|-----------------|-----------------|-----------------|
                                                        10    12  11
|-----------------|-----------------|-----------------|-------*---*-12--|
|-0---0-0---0-0-0-|-----------------|-0---0-0---0-0-7-|-*-9-7-------*-12|
|-----------------|-0---0-0---0-0-0-|-----------------|---------------*-|
|-----------------|-----------------|-----------------|-----------------|
                                                        10    10  12
|-----------------|-----------------|-----------------|-----------*-12--|
|-0---0-0---0-0-0-|-----------------|-0---0-0---0-0-7-|-*-9-7-*-----*-\-|
|-----------------|-0---0-0---0-0-0-|-----------------|-----------------|
|-----------------|-----------------|-----------------|-----------------|
    12  12  12
|-12--12*---------|-------5---------|-----------------|-----------------|
|-*-*-*-----*-\-7-|-/---\-----------|-0---0-0---0-0-0-|-----4-0-5-4-0---|
|-----------------|-----------0-2-3-|-----------------|-0-------------0-|
|-----------------|-----------------|-----------------|-----------------|


Chorus:
|-----------------|-----------------|---------------0-|---------------0-|
|-----------------|-----------------|-----------2-4---|-4-------2--4----|
|-----------------|-----------------|-----------------|-------3---------|
|-3---3-3---3-3-3-|-3---3-3---3-3-2-|-0---0-3---------|-----------------|

|-2---------2---2-|-4---4-4---0-4---|-----0-0-5-0-5-8-|---8-8-7---5---4-|
|-------2-2---2---|---------------0-|-----------------|-----------------|
|-----------------|-----------------|-3-3-------------|-----------------|
|-----------------|-----------------|-----------------|-----------------|

|-4---4-0---0-----|-----------------|---------------0-|---------------0-|
|-------------0---|-----------------|-----------2-4---|-4-------2--4----|
|-----------------|-2h3p2-----------|-------2---------|-------2---------|
|-----------------|-------3---3-3-2-|-0---0-----------|-----------------|

|-7---5-4-5---4-0-|---0-0-0---2-0---|-----0-0-5-0-5-8-|---8-8-7---5---4-|
|-----------------|---------0-----0-|-----------------|-----------------|
|-----------------|-----------------|-3-3-------------|-----------------|
|-----------------|-----------------|-----------------|-----------------|


Pre-verse2:                                             10    10  12
|-----------------|-----------------|-----------------|-----------*-12--|
|-0---0-0---0-0-0-|-----------------|-0---0-0---0-0-7-|-*-9-7-*-----*-\-|
|-----------------|-0---0-0---0-0-0-|-----------------|-----------------|
|-----------------|-----------------|-----------------|-----------------|


--Verse

--Chorus


Post-chorus:
|-----------------|-----------------|-----------------|-------5/9-------|
|-----------------|-----------------|-0-0-0-0---0-0-0-|-------------9-\-|
|-----------------|-----------------|-----------------|-3-3-3-----------|
|-3---3-3---3-3-3-|-0---0-0---0-0-0-|-----------------|-----------------|

|-----------------|-----------------|-------------2---|-----------2-----|
|-----------------|-----------------|-0-0-0-0---0---0-|-----------------|
|-----------------|-----------------|-----------------|-3-3-3-3-3---5-\-|
|-3---3-3---3-3-3-|-0---0-0---0-0-0-|-----------------|-----------------|


Solo:    /                                   /
|-------35--3-----|-----------------|-------35--3-0-3-|-5--3--1---3-1---|
|-------------3-\-|-----3-3-3-1-----|-----------------|---------------3-|
|-1---1-----------|-------------3-\-|-1---1-----------|-----------------|
|-----------------|-1---------------|-----------------|-----------------|
         /
|-------35--3-----|-----------------|-----3-3-3-1---1-|-5--5--3---1-----|
|-------------3-\-|-----3-3-3-3-----|-------------3---|-------------3-\-|
|-1---1-----------|-------------3-\-|-1---------------|-----------------|
|-----------------|-1---------------|-----------------|-----------------|
         /                                   /
|-------35--3-----|-----------------|-------35--3-0-3-|-5--3--1---3-1---|
|-------------3-\-|-----3-3-3-3-----|-----------------|---------------3-|
|-1---1-----------|-------------3-\-|-1---1-----------|-----------------|
|-----------------|-1---------------|-----------------|-----------------|
         /                                                     /
|-------35--3-----|-----------------|-----3-1-1-3-1---|-5---5-37--7-----|
|-------------3-\-|-----3-3-3-3-----|---------------3-|-------------8-\-|
|-1---1-----------|-------------3-\-|-1---------------|-----------------|
|-----------------|-1---------------|-----------------|-----------------|

|-----------------|-----------------|
|-----------------|-----------------|
|-----------------|-5-\-1-/---(9)-\-|
|-----------------|-----------------|


--Chorus


Ending:
|-----------------|-----------------|-----------------|-----------2-----|
|-----------------|-----------------|-0-0-0-0---0-0-0-|-----------------|
|-----------------|-----------------|-----------------|-3-3-3-3-3---5-\-|
|-3---3-3---3-3-3-|-0---0-0---0-0-0-|-----------------|-----------------|

|-----------------|-----------------|-----------------|-----5-5-5-3-----|
|-----------------|-----------------|-0-0-0-0---0-0-0-|-------------5-\-|
|-----------------|-----------------|-----------------|-3-3-------------|
|-3---3-3---3-3-3-|-0---0-0---0-0-0-|-----------------|-----------------|

|-----------------|-----------------|-----------------|-------5/9-------|
|-----------------|-----------------|-0-0-0-0---0-0-0-|-------------9-\-|
|-----------------|-----------------|-----------------|-3-3-3-----------|
|-3---3-3---3-3-3-|-0---0-0---0-0-0-|-----------------|-----------------|

|-----------------|-----------------|-----------------|-------------5/9-|
|-----------------|-----------------|-0-0-0-0---0-0-0-|-----------------|
|-----------------|-----------------|-----------------|-3-3-3-3-3-3-----|
|-3---3-3---3-3-3-|-0---0-0---0-0-0-|-----------------|-----------------|
  10
|-----------------||
|-----------------||
|-*-\-------------||
|-----------------||





Comments


Popular L Arc En Ciel tabs & chords
Blurry Eyes Bass Tabs
Drivers High Bass Tabs
Wind Of Gold Bass Tabs
4th Avenue Cafe Chords
Bless Chords
Feeling Fine Chords
Hello Chords
Blurry Eyes Tabs
Kasou Part Ii Tabs
Stay Away (Solo) Tabs


Song lyrics



↑ Back to top | Tablatures and chords are parodies/interpretations of the original songs. You may use it for private study, scholarship, research or language learning purposes only
© 2014 AZChords.com Contact us | Privacy policy | DMCA | Add/correct tabs | Request tabs | Top 50 tabs