» » »

Que Te Queria Tabs (ver.2)

Artists:  A B C D E F G H I J K L M N O P Q R S T U V W X Y Z # 

Que Te Queria Tabs (ver.2)

La Quinta Estacion
Rating:
5/5 (1 vote)

Hard to play? Try these video lessons and learn fast.
                riff intro Despues del teclado.

E--------------------------------------------|
B--------------------------------------------|
G--------------------------------------------|
D----2-x-x--2-x-x--2-x-2-x-x-2---------------|
A----3-x-x--3-x-x--3-x-3-x-x-3---------------|
E--------------------------------------------|


Riff de las 2 primeras estrofas

E---------------------------------------------------------|
B---------------------------------------------------------|
G---------------------------------------------------------|
D----2-x-x--2-x-x--2------------------2-x-2-------3-x-3---|
A----3-x-x--3-x-x--3--2-2-2-----------0-x-0--0h2--3-x-3---|
E---------------------3-3-3-3-3-2-3-4-------------1-x-1---|

RIFF 2 (2 veces)

         C9      G7   Am     F
La llama se apagó,       no sé.
          C9      G7   Am     F
Matamos la ilusión,      tal vez.
           Am             Dm
Y donde quedo yo en este mundo sin color;
        F
sin historias que contarte,
       G
sin saber como explicarte.

           F                 G                 C  C9
Que hoy te veo y aunque lo intente no se me olvida
          F              G                Am
que eras tú el que no creía en las despedidas.
          F               G
Que sigo siendo la misma loca que entre tus
 C9       G     Am
sábanas se perdía;
             F               G                   Dm   G
y a fín de cuentas no soy distinta de aquella idiota
              C
que te quería.

E--------------------------------------------|
B--------------------------------------------|
G--------------------------------------------|
D----2-x-x--2-x-x--2-x-2-x-x-2---------------|
A----3-x-x--3-x-x--3-x-3-x-x-3---------------|
E--------------------------------------------|


Repite Riff 2

             C9    G7  Am      F
No importa como fué,     ni quien.
       C9      G7   Am    F
Queríamos beber,     sin ser.
        Am      A-0h2- F         Dm
Y donde quedo yo        en este mundo sin pudor;
     F
ignorando las señales
        G
que me llevan a encontrarte.


            F                 G              C  C9
Que hoy te veo y aunque lo intente no se me olvida
          F              G                Am
que eras tú el que no creía en las despedidas.
          F               G
Que sigo siendo la misma loca que entre tus
 C9       G     Am
sábanas se perdía;
             F               G                   Dm   G
y a fín de cuentas no soy distinta de aquella idiota

que te quería.

PUENTE:
Dm                     G
    Que todavía espera verte sonreir.
Dm                     F             G
    Que todavía espera verse junto a tí.

           F                  G                C - C9
Que hoy te veo y aunque lo intente no se me olvida
          F              G                Am
que eras tú el que no creía en las despedidas.
          F               G
Que sigo siendo la misma loca que entre tus
 C9       G     Am
sábanas se perdía;
             F               G                   Dm   G
y a fín de cuentas no soy distinta de aquella idiota

que te quería.
            
Hard to play? Try these video lessons and learn fast. | Correct




comments powered by Disqus
↑ Back to top | Tablatures and chords are parodies/interpretations of the original songs. You may use it for private study, scholarship, research or language learning purposes only