» » »

La Quinta Estacion, Que Te Queria Tabs (ver.1)

Artists:  A B C D E F G H I J K L M N O P Q R S T U V W X Y Z # 

Que Te Queria Tabs (ver.1)

La Quinta Estacion Tabs
 Rating:
4/5 (4 votes)
Que Te Queria lessons Tabs too difficult? Try these video lessons and learn fast
                ----------------------INTRO----------------------------------------
F G Am   F G
----------------------VERSO----------------------------------------
C      G  Am   F
La llama se apagó,   no sé.
         C        G  Am     F
Matamos la ilusión,   tal vez.
          C              G
Y donde quedo yo en este mundo sin color;
Dm
sin historias que contarte,
G
sin saber como explicarte.
-----------------------CORO----------------------------
F                 G              Am
Que hoy te veo y aunque lo intente no se me olvida
         F              G              Am
que eras tú el que no creía en las despedidas.
F               G
Que sigo siendo la misma loca que entre tus **
C      Bm    Am
sábanas se perdía;
Dm              G                 F      G
y a fín de cuentas no soy distinta de aquella idiota
C (palm mute)
que te quería.
---------------------VERSO----------------------------
C                   G  Am    F
No importa como fué,   ni quien.
C        G Am   F
Queríamos beber,  sin sed
C               G
Y donde quedo yo en este mundo sin tu voz;
Dm
ignorando las señales
G
que me llevan a encontrarte.
-----------------------CORO----------------------------
F                 G              Am
Que hoy te veo y aunque lo intente no se me olvida
         F              G              Am
que eras tú el que no creía en las despedidas.
F               G
Que sigo siendo la misma loca que entre tus **
C      Bm    Am
sábanas se perdía;
Dm              G                 F      G
y a fín de cuentas no soy distinta de aquella idiota
C (palm mute)
que te quería.
--------------------PUENTE-------------------------------
F                     G
Que todavía espera verte sonreir.
F                     G
Que todavía espera verse junto a tí.

                         ------SOLO-----------------------------------------|
-8p7--------------------------------------------|---------------------------|
-----10-8-10--10p8-8-----8-8---10---------------|-----8-6-5-------5-6-------|
---------------------7s9-----9----9s7-5---5h7-5-|-4s5-------7-5-7-----------|
----------------------------------------7-------|---------------------------|
------------------------------------------------|---------------------------|
------------------------------------------------|---------------------------|


------------|-15-----------------19^-19-17-15--------------------------------|
------------|----18-17-15--17-18--------------18-17-15-----------------------|
-9h10h11h12-|----------------------------------------------------------------|
------------|----------------------------------------------------------------|
------------|----------------------------------------------------------------|
------------|----------------------------------------------------------------|
   (x4)

------------------CORO-------------------------------------
F                 G              Am
Que hoy te veo y aunque lo intente no se me olvida
         F              G              Am
que eras tú el que no creía en las despedidas.
F               G
Que sigo siendo la misma loca que entre tus **
C      Bm    Am
sábanas se perdía;
Dm              G                 F      G
y a fín de cuentas no soy distinta de aquella idiota
--------------------FINAL---------------
F      G   Am
que te queríaaaaaaaaaaaaaa
F  G  Am
UUUUU IIIIIIIIAAAA IIIIIAAAAAAA!!!!!
F                G
Que sigo siendo la misma loca que entre tus
C      Bm    Am
sábanas se perdía;
Dm              G                 F      G
y a fín de cuentas no soy distinta de aquella idiota

que te quería.
            
Submit corrections

comments powered by Disqus
↑ Back to top | La Quinta Estacion Tabs for Que Te Queria. Lyrics for acoustic guitar and electric guitar. Tablatures and chords are parodies/interpretations of the original songs. You may use it for private study, scholarship, research or language learning purposes only