» » »

La Oreja De Van Gogh, Mueca De Trapo Tabs (ver.2)

Artists:  A B C D E F G H I J K L M N O P Q R S T U V W X Y Z # 

Mueca De Trapo Tabs (ver.2)

La Oreja De Van Gogh Tabs
Rating:
0/5 (0 votes)
Mueca De Trapo lessons Tabs too difficult? Try these video lessons and learn fast
                Solm                        Fa            La#
Como esos cuadros que aún están por colgar
                     Re7
como el mantel de la cena de ayer
 Solm                    Fa           La#
siempre esperando que te diga algo más
                   Re7                  Solm
y mis sentidas palabras no quieren volar

1.----------------------------------------------|
2.-----------3----------------------------------|
3.--------------------------3-------------------|  x2
4.---3s4s5------5--3s4s5------------------------|
5.----------------------------------------------|
6.----------------------------------------------|


Solm                Fa          La#
Lo nunca dicho se disuelve en te
                     Re7
como el infiel dice “nunca lo haré”
Solm                    Fa            La#
siento que estoy en una cárcel de amor
                   Re7                 Solm
no olvidarás si no firmo mi declaración

1.--------------------------------------------|
2.-----------3--------------------------------|
3.--------------------------3-----------------|
4.---3s4s5------5--3s4s5----------------------|
5.--------------------------------------------|
6.--------------------------------------------|


                       Re#      Dom
Me abrazaría al diablo sin dudar
                       Solm
por ver tu cara al escucharme hablar
Sol7                 Dom  Fa
eres todo lo que más quiero
                      La#      Re7
pero te pierdo en mis silencios
                        Solm  Re#
Mis ojos son dos cruces negras
                         La#  Re7
que no han hablado nunca claro
              Solm       Fa
mi corazón lleno de pena
                   Solm
y yo una muñeca de trapo

1.-----------------------------------------------|
2.-----------3-----------------------------------|
3.--------------------------3--------------------|
4.---3s4s5------5--3s4s5-------------------------|   x2
5.-----------------------------------------------|
6.-----------------------------------------------|


Solm                Fa       La#
Cada silencio es un nube que va
                    Re7
detrás de mi, sin parar de llorar
Solm                   Fa
quiero contarte lo que siento por ti
           La#                    Re7                Solm
que me escuche hablar la luna de enero mirándote a ti
1.--------------------------------------------|
2.-----------3--------------------------------|
3.--------------------------3-----------------|
4.---3s4s5------5--3s4s5----------------------|
5.--------------------------------------------|
6.--------------------------------------------|

                       Re#      Dom
Me abrazaría al diablo sin dudar
                       Solm
por ver tu cara al escucharme hablar
Sol7                 Dom  Fa
eres todo lo que más quiero
                      La#      Re7
pero te pierdo en mis silencios
                        Solm  Re#
Mis ojos son dos cruces negras
                         La#  Re7
que no han hablado nunca claro
              Solm       Fa
mi corazón lleno de pena
                   Solm
y yo una muñeca de trapo

Re#   Dom  Solm   Sol7   Dom  Fa   La#


Re7                     Solm  Re#
No tengo miedo al fuego eterno
                      La#    Re7
tampoco a sus cuentos amargos
                    Solm     Re#
pero el silencio es algo frío
                        La#    Re7
y mis inviernos son muy largos.
                      Solm   Re#
Y a tu regreso estaré lejos
                          La#    Re7
entre los versos de algún tango
                       Solm  Fa
porque este corazón sincero
                       Solm
murió en su muñeca de trapo.
1.----------------------------------------------|
2.-----------3----------------------------------|
3.--------------------------3-------------------|
4.---3s4s5------5--3s4s5------------------------|  x2
5.----------------------------------------------|
6.----------------------------------------------|
            
Submit corrections

comments powered by Disqus
↑ Back to top | La Oreja De Van Gogh Tabs for Mueca De Trapo. Lyrics for acoustic guitar and electric guitar. Tablatures and chords are parodies/interpretations of the original songs. You may use it for private study, scholarship, research or language learning purposes only