» » »

Mueca De Trapo Tabs (ver.1)

Artists:  A B C D E F G H I J K L M N O P Q R S T U V W X Y Z # 

Mueca De Trapo Tabs (ver.1)

La Oreja De Van Gogh
Rating:
0/5 (0 votes)

Hard to play? Try these video lessons and learn fast.
                MUÑECA DE TRAPO - LODVG

Capo 3

VERSE 1
Em                         D
Como esos cuadros que aun estan por colgar
G                    B7
Como el mantel de la cena de ayer
Em                       D
Siempre esperando que te diga algo mas
G                B7
Y mis sentidas palabras no quieren volar

Riff
E-----------------------------------]
B----------0------------------------]
G--------0---0----------0-0---------]     X 2
D---0s2--------2--0s2---------------]
A-----------------------------------]
E-----------------------------------]

VERSE 2

Em                  D
Lo nunca dicho se disuelve en un té
G                   B7
Como el infiel dice nunca lo hare
Em                       D
Siento que estoy en una cárcel de amor
G                  B7
Me olvidaras si no firmo mi declaracion

(Riff 1 again and then you play Riff 2)----Listen this part--

Riff 2
E---------------------]
B---------------------]
G---------------------]
D-------------------0-]   (OPTIONAL)
A-------------0--2----]
E-0--0--2---3---------]


CHORUS
 
(Riff 2)                C
Me abrazaria el diablo sin dudar
Am                      Em
por ver tu cara al escucharme hablar
E                 Am
eres todo lo que mas quiero
D                       G
pero te pierdo en mis silencios 
B7               Em
mis ojos son dos cruces negras
C                  G
que no han hablado nunca claro
B7             Em
mi corazon lleno de pena
D                    Em
y yo una muñeca de trapo               RIFF 1 TWICE

VERSE 3

Em                   D
Cada silencio es una nube que va
G                 B7   
detrás de mi sin parar de llorar
Em                     D
Quiero contarte lo que siento por ti
            G                      B7               Em
Que me escuche hablar la luna de enero mirandote a ti    RIFF 1

CHORUS


INSTRUMENTAL PART
Riff 2
In this part you can play the chords OR a solo  C - Am
- Em - E - Am - D - G - B7(HOLD IT TILL THE PART THAT SAYS:" no tengo miedo al fuego"..ok?

Solo (OPTIONAL)
E-----------------------------------------------------------------------
B-----------------------------------------------------------------------
G------------------------------------2-2-0-0----------------------------
D---------------0-2-0-2----2-2-4-4-5---------2-2-3-3-2-2-0-0-----0-0-2-2
A-----------0-2----------------------------------------------3-3--------
E---0-0-2-3-------------------------------------------------------------


E--------------------]
B--------------------]
G--------------------]
D-0-0----------------]   AND THE YOU PLAY A B7
A------3-3--2-2----0-]
E----------------3---]

B7                  Em
No tengo miedo al fuego eterno
C                G
Tampoco a tus ojos amargos
B7                  Em
Pero el silencio es algo frio
C                   G
Y mis inviernos son muy largos
B7                Em
Y a tu regreso estare lejos
C                  G
Entre los versos de algun tango
B7                Em       
Porque este corazon sincero
D                Em
Murio en su muñeca de trapo

Riff 1

E-------------------------]
B--------0----------------]
G------0---0-------0--0---]    X3
D--0s2-------2-0s2--------]
A-------------------------]
E-------------------------]
And then



E-------------------3----]
B--------0---------------]
G-------0---0------------]    You end with Em
D---0s2-------2--2s4-----]
A------------------------]
E------------------------]

This is all
HOPE YOU ENJOY IT!!
            
Hard to play? Try these video lessons and learn fast. | Correct




comments powered by Disqus
↑ Back to top | Tablatures and chords are parodies/interpretations of the original songs. You may use it for private study, scholarship, research or language learning purposes only