» » »

Falling In Love At A Coffee Shop Tabs (ver.2)

Artists:  A B C D E F G H I J K L M N O P Q R S T U V W X Y Z # 

Falling In Love At A Coffee Shop Tabs (ver.2)

Landon Pigg
Rating:
4/5 (4 votes)

Hard to play? Try these video lessons and learn fast.
                (Intro)
-------------------------------------------------------------------------------
                             Falling In Love At a Coffee Shop - Landon Pigg
-------------------------------------------------------------------------------

Tuning: Standard


How I Think it Goes...


|-0-----2-----------------------------------------------------------------------|
|-------------4-----5-----2-----4-----0-----------------------------------------|
|-------------------------------------------2-----1-----1-----1-----1-----1-----|
|-------------------------------------------------------------------------------|
|-------------------------------------------------------------------------------|
|-0--0-----0--0--0-----0--0--0-----0--0--0-----0--0--0-----0--0--0-----0--0--0--|

----------------------|
----------------------|
--1-----1-----1-------|    x2
----------------------|
----------------------|
-----0--0--0-----0----|

|-0-----2-----------------------------------------------------------------------|
|-------------4-----5-----2-----4-----0-----------------------------------------|
|-------------------------------------------2-----1-----1-----1-----1-----1-----|
|-------------------------------------------------------------------------------|
|-------------------------------------------------------------------------------|
|-0--0-----0--0--0-----0--0--0-----0--0--0-----0--0--0-----0--0--0-----0--0--0--|

|--------------------------------------------------------------------------|
|--------------------------------------------------------------------------|
|--1-----1-----1-----1-----1-----1-----1-----1-----1-----1-----1-----1-----|
|--------------------------------------------------------------------------|
|--------------------------------------------------------------------------|
|-----0--0--0-----0--0--0-----0--0--0-----0--0--0-----0--0--0-----0--0--0--|




======================================================================
            
Hard to play? Try these video lessons and learn fast. | Correct




comments powered by Disqus
↑ Back to top | Tablatures and chords are parodies/interpretations of the original songs. You may use it for private study, scholarship, research or language learning purposes only