» » »

Landon Pigg, Falling In Love At A Coffee Shop Tabs (ver.1)

Artists:  A B C D E F G H I J K L M N O P Q R S T U V W X Y Z # 

Falling In Love At A Coffee Shop Tabs (ver.1)

Landon Pigg Tabs
 Rating:
4.8/5 (26 votes)
Falling In Love At A Coffee Shop lessons Tabs too difficult? Try these video lessons and learn fast
1
                -------------------------------------------------------------------------------
-------------------------------------------------------------------------------

Tuning: Standard



This is My Personal Interpretation of This song. If you cannot play the bass line, just ignore it.



|-0-----2---------------------------------------------------------------------------------------|
|-------------4-----5-----2-----4-----0---------------------------------------------------------|
|-------------------------------------------2-----1-----1-----1-----1-----1-----1-----1-----1---| 
|-----------------------------------------------------------------------------------------------|
|-----------------------------------------------------------------------------------------------|
|-0--0-----0--0--0-----0--0--0-----0--0--0-----0--0--0-----0--0--0-----0--0--0-----0--0--0-----0|
   *Play This Line x2*

|-0-----2--------------------------------------|
|-------------4-----5-----2-----4-----0--------|
|-------------------------------------------2--|
|----------------------------------------------|
|----------------------------------------------|
|-0--0-----0--0--0-----0--0--0-----0--0--0-----|

|--------------|
|--------------|
|----1-----1---| x12
|--------------|
|--------------|
|-0--0--0------|

|-0-----2--------------------------------------|
|-------------4-----5-----2-----4-----0--------|
|-------------------------------------------2--|
|----------------------------------------------|
|----------------------------------------------|
|-0--0-----0--0--0-----0--0--0-----0--0--0-----|

|--------------|
|--------------|
|----1-----1---| x4
|--------------|
|--------------|
|-0--0--0------|

|-0-----2----------------------------------------|
|-------------4-----5-----2-----4-----0----------|
|-------------------------------------------2----|
|------------------------------------------------|
|------------------------------------------------|
|-0--0-----0--0--0-----0--0--0-----0--0--0-----0-|

|-------------------------4-----------4----------------------------------------------------------|
|-2-----------2-----------------------------------4-----------4-----------5-----------5----------|
|-------2-----------2-----------2-----------2-----------2-----------2-----------2-----------2----|
|------------------------------------------------------------------------------------------------|
|-0--0-----0--0--0-----0--0--0-----0--0--0-----0--0--0-----0--0--0-----0--0--0-----0--0--0-----0-|
|------------------------------------------------------------------------------------------------|

|------------------------------------------------|
|-0-----------0-----------4-----------4----------|
|-------1-----------1-----------4-----------4----|
|------------------------------------------------|
|------------------------------------------------|
|-0--0-----0--0--0-----0--0--0-----0--0--0-----0-|

|------------|
|-0----------|
|-------1----| x4
|------------|
|------------|
|-0--0-----0-|

|------------------------------------------------|
|-0-----------0-----------4-----------4----------|
|-------1-----------1-----------4-----------4----|
|------------------------------------------------|
|------------------------------------------------|
|-0--0-----0--0--0-----0--0--0-----0--0--0-----0-|

|------------|
|-0----------|
|-------1----| x4
|------------|
|------------|
|-0--0-----0-|

These Next Two Lines are the Chorus:
|----------------------------------------------------------------------------------|
|----------------------------------------------------------------------------------|
|----------------------------------------------------------------------------------|
|-4----4---4-4----4---4-4/6----6---6-6----6-6/7----7---7-7----7-7/9---9----9---9-9-|
|-4----4---4-4----4---4-4/6----6---6-6----6-6/7----7---7-7----7-7/9---9----9---9-9-|
|-2----2---2-2----2---2-2/4----4---4-4----4-4/5----5---5-5----5-5/7---7----7---7-7-|
   *Strum Pattern : Down, Up, Up, Down, Up, Up.*

|------------------------------------------------------------------------------------|
|------------------------------------------------------------------------------------|
|------------------------------------------------------------------------------------| 
|-4----4---4-4----4---4-4/6----6---6-6----6-6/7----7---7-7----7---7-7----7---7-7---7-|
|-4----4---4-4----4---4-4/6----6---6-6----6-6/7----7---7-7----7---7-7----7---7-7---7-|
|-2----2---2-2----2---2-2/4----4---4-4----4-4/5----5---5-5----5---5-5----5---5-5---5-|
*Play This Line x4*

|-0-----2---------------------------------------------------------------------------------------|
|-------------4-----5-----2-----4-----0---------------------------------------------------------|
|-------------------------------------------2-----1-----1-----1-----1-----1-----1-----1-----1---| 
|-----------------------------------------------------------------------------------------------|
|-----------------------------------------------------------------------------------------------|
|-0--0-----0--0--0-----0--0--0-----0--0--0-----0--0--0-----0--0--0-----0--0--0-----0--0--0-----0|

|-0-----2-----------------------------------------------------2-----0---------------------------|
|-------------4-----5-----2-----4-----0-----------------0---------------------------------------|
|-------------------------------------------2-----1-----------------------2-----2-----2-----2---| 
|-----------------------------------------------------------------------------------------------|
|-----------------------------------------------------------------------------------------------|
|-0--0-----0--0--0-----0--0--0-----0--0--0-----0--0--0-----0--0--0-----0--0--0-----0--0--0-----0|

|-------------|
|-------------|
|-1-----1-----| x8
|-------------|
|-------------|
|-0--0-----0--|

|-0-----2---------------------------------------------------------------------------------------|
|-------------4-----5-----2-----4-----0---------------------------------------------------------|
|-------------------------------------------2-----1-----1-----1-----1-----1-----1-----1-----1---| 
|-----------------------------------------------------------------------------------------------|
|-----------------------------------------------------------------------------------------------|
|-0--0-----0--0--0-----0--0--0-----0--0--0-----0--0--0-----0--0--0-----0--0--0-----0--0--0-----0|

|-0-----2----------------------------------------|
|-------------4-----5-----2-----4-----0----------|
|-------------------------------------------2----|
|------------------------------------------------|
|------------------------------------------------|
|-0--0-----0--0--0-----0--0--0-----0--0--0-----0-|

|-------------------------4-----------4----------------------------------------------------------|
|-2-----------2-----------------------------------4-----------4-----------5-----------5----------|
|-------2-----------2-----------2-----------2-----------2-----------2-----------2-----------2----|
|------------------------------------------------------------------------------------------------|
|-0--0-----0--0--0-----0--0--0-----0--0--0-----0--0--0-----0--0--0-----0--0--0-----0--0--0-----0-|
|------------------------------------------------------------------------------------------------|

|------------|
|-0----------|
|-------1----| x4
|------------|
|------------|
|-0--0-----0-|

|------------------------------------------------|
|-0-----------0-----------4-----------4----------|
|-------1-----------1-----------4-----------4----|
|------------------------------------------------|
|------------------------------------------------|
|-0--0-----0--0--0-----0--0--0-----0--0--0-----0-|

|------------|
|-0----------|
|-------1----| x4
|------------|
|------------|
|-0--0-----0-|
 
Play The Chorus Again, but slightly different at the end:
|----------------------------------------------------------------------------------|
|----------------------------------------------------------------------------------|
|----------------------------------------------------------------------------------|
|-4----4---4-4----4---4-4/6----6---6-6----6-6/7----7---7-7----7-7/9---9----9---9-9-|
|-4----4---4-4----4---4-4/6----6---6-6----6-6/7----7---7-7----7-7/9---9----9---9-9-|
|-2----2---2-2----2---2-2/4----4---4-4----4-4/5----5---5-5----5-5/7---7----7---7-7-|

|------------------------------------------------------------------------------------|
|------------------------------------------------------------------------------------|
|------------------------------------------------------------------------------------| 
|-4----4---4-4----4---4-4/6----6---6-6----6-6/7----7---7-7----7---7-7----7---7-7---7-|
|-4----4---4-4----4---4-4/6----6---6-6----6-6/7----7---7-7----7---7-7----7---7-7---7-|
|-2----2---2-2----2---2-2/4----4---4-4----4-4/5----5---5-5----5---5-5----5---5-5---5-|
*Play This Line x4*

|----------------------------------------------------------------------------------|
|----------------------------------------------------------------------------------|
|----------------------------------------------------------------------------------|
|-7----7---7-7----7---7-7----7---7-7----7-7----7---7-7----7-7/9---9----9---9-9-|
|-7----7---7-7----7---7-7----7---7-7----7-7----7---7-7----7-7/9---9----9---9-9-|
|-5----5---5-5----5---5-5----5---5-5----5-5----5---5-5----5-5/7---7----7---7-7-|

|-0-----2-----------------------------------------------------2-----0---------------------------|
|-------------4-----5-----2-----4-----0-----------------0---------------------------------------|
|-------------------------------------------2-----1-----------------------2-----2-----2-----2---| 
|-----------------------------------------------------------------------------------------------|
|-----------------------------------------------------------------------------------------------|
|-0--0-----0--0--0-----0--0--0-----0--0--0-----0--0--0-----0--0--0-----0--0--0-----0--0--0-----0|

|-0-----2-----------------------------------------------------2-----0---------------------------|
|-------------4-----5-----2-----4-----0-----------------0---------------------------------------|
|-------------------------------------------2-----1-----------------------1-----1-----1-----1---| 
|-----------------------------------------------------------------------------------------------|
|-----------------------------------------------------------------------------------------------|
|-0--0-----0--0--0-----0--0--0-----0--0--0-----0--0--0-----0--0--0-----0--0--0-----0--0--0-----0|

|-0-----2-----------------------------------------------------2-----0---------------------------|
|-------------4-----5-----2-----4-----0-----------------0---------------------------------------|
|-------------------------------------------2-----1-----------------------2-----2-----2-----2---| 
|-----------------------------------------------------------------------------------------------|
|-----------------------------------------------------------------------------------------------|
|-0--0-----0--0--0-----0--0--0-----0--0--0-----0--0--0-----0--0--0-----0--0--0-----0--0--0-----0|


                                 >--Slow Down-->
|-0-----2-----------------------------------------------------2---------------0-----|
|-------------4-----5-----2-----4-----0-----------------0-----------0---------0-----|
|-------------------------------------------2-----1---------------------------1-----| 
|-----------------------------------------------------------------------------2-----|
|-----------------------------------------------------------------------------2-----|
|-0--0-----0--0--0-----0--0--0-----0--0--0-----0--0--0-----0--0--0------0-----0-----|
            
Submit corrections

comments powered by Disqus
↑ Back to top | Landon Pigg Tabs for Falling In Love At A Coffee Shop. Lyrics for acoustic guitar and electric guitar. 1 Tablatures and chords are parodies/interpretations of the original songs. You may use it for private study, scholarship, research or language learning purposes only