>
 >
Dia Cero

Dia Cero Guitar Tabs

La Ley - Dia Cero chords, tabs, tablatures, lyrics

Guitar lessons | Add/correct | Request | Top 50 tabs Artists:  A B C D E F G H I J K L M N O P Q R S T U V W X Y Z 0-9

Dia Cero Guitar Tabs – La Ley

CD, Sheet music, Poster

Do you like Dia Cero? Share with your friends now
Bass TabsTabsTabs v2
Intro: (Gm) 
e|---------------------------|
b|---------------------------|
g|---------------15h17-15h17~|
D|--17~-17-17-17-------------|
A|---------------------------|
E|---------------------------|
            (Gm)
e|------------------------------------------|
b|---------------------15h18-15p18----------|
g|---------------15h17-------------17p15----|
D|--17~-17-17-17-------------------------17~|
A|------------------------------------------|
E|------------------------------------------|
              (Gm)
e|-----------------------------------|
b|-----------------------------------|
g|-----------15h17-17-17p15----------|
D|--17-17-17----------------17-15-17~|
A|-----------------------------------|
E|-----------------------------------|
               (Gm)
e|--------------------------------------|
b|-----------------15h18-15p18----------|
g|-----------15h17-------------17p15----|
D|--17-17-17-------------------------17~|
A|--------------------------------------|
E|--------------------------------------|
                  (Gm)
e|-----------------------------------|
b|-----------------------------------|
g|-----------15h17-17-17p15----------|
D|--17-17-17----------------17-15-17~|
A|-----------------------------------|
E|-----------------------------------|
                 (Gm)
e|--------------------------------------|
b|-----------------15h18-15p18----------|
g|-----------15h17-------------17p15----|
D|--17-17-17-------------------------17~|
A|--------------------------------------|
E|--------------------------------------|
                 (Gm)
e|-----------------------------------|
b|-----------------------------------|
g|-----------15h17-17-17p15----------|
D|--17-17-17----------------17-15-17~|
A|-----------------------------------|
E|-----------------------------------|
                    (Gm)
e|--------------------------------------|
b|-----------------15h18-15p18----------|
g|-----------15h17-------------17p15----|
D|--17-17-17-------------------------17~|
A|--------------------------------------|
E|--------------------------------------|

(Hasta aquí abarca el intro, y aquí empieza la letra con un rifft 
muy similar al del intro que va así)
                 (Gm)
e|-----------------------------------------------------|
b|-----------------------------------------------------|
g|------------15h17-15h17~-----------15h17-17-17p15----|
D|---17-17-17---------------17-17-17-------------------|
A|-----------------------------------------------------|
E|-----------------------------------------------------|
      Veo   lo   que   creo   ver   y   no   veo    mas
                      (Gm)
e|------------------------------------------------------|
b|------------------------------------------------------|
g|-----------15h17-17-17p15-----------15h17-17-17p15----|
D|--17-17-17-----------------17-17-17-----------------17|
A|------------------------------------------------------|
E|------------------------------------------------------|
     De    lo   que   pueda   contra   no recuerdo nada

                  (F)
e|-----------------------------------------------|
b|-----------------------------------------------|
g|-----------------------------------------------|
D|--19-x-x-x-19-x-x-x-19-x-x-x-19-x-x-x-19-x-x-x-|
A|-----------------------------------------------|
E|-----------------------------------------------|
    No hay necesidad            de hablarlo mas
              (Gm)
e|-----------------------------------|
b|-----------------------------------|
g|-----------15h17-17-17p15----------|
D|--17-17-17----------------17-15-17~|
A|-----------------------------------|
E|-----------------------------------|
             (Gm)
e|--------------------------------------|
b|-----------------15h18-18p15----------|
g|-----------15h17-------------17p15----|
D|--17-17-17-------------------------17~|
A|--------------------------------------|
E|--------------------------------------|


                          (Gm)
e|-----------------------------------------------------|
b|-----------------------------------------------------|
g|------------15h17-15h17~-----------15h17-17-17p15----|
D|---17-17-17---------------17-17-17-------------------|
A|-----------------------------------------------------|
E|-----------------------------------------------------|
   Creo    creer   temo   temer  que   esto  es  verdad

                      (Gm)
e|------------------------------------------------------|
b|------------------------------------------------------|
g|-----------15h17-17-17p15-----------15h17-17-17p15----|
D|--17-17-17-----------------17-17-17-----------------17|
A|------------------------------------------------------|
E|------------------------------------------------------|
     La   vida   se   nublo   en    su    totalidad

    (F)            (Am)
e|-------------------------------------------------|
b|-------------------------------------------------|
g|-------------------------------------------------|
D|--19-x-x-x-19-x-x-x-19-x-x-x-19-x-x-x-19-x-x-x-19|
A|-------------------------------------------------|
E|-------------------------------------------------|
  Estoy perdido y no se mirar lo que deje aya atrás

(Un consejo, trata de opacar las cuerdas lo
 mas que se pueda en el toque de cada nota, 
por que si te puedes dar cuenta, el ritmo va muteado, 
es cuestión de que pongas mucha oreja, seria fácil 
ponerte el muteo, pero no hay nada mejor que lo 
intentes, pero te advierto que no es técnica fácil, 
pero inténtalo).

Coro:

A#       Eb
En ese camino largo
Dm
Que un día me vio caminar
A#           Eb
Nació esta ciega herida
Dm
Que borro hoy día mi ayer

(Se repite esta parte del intro después del sonido del teclado).

              (Gm)
e|-----------------------------------|
b|-----------------------------------|
g|-----------15h17-17-17p15----------|
D|--17-17-17----------------17-15-17~|
A|-----------------------------------|
E|-----------------------------------|

            (Gm)
e|------------------------------------------|
b|---------------------15h18-15p18----------|
g|---------------15h17-------------17p15----|
D|--17~-17-17-17-------------------------17~|
A|------------------------------------------|
E|------------------------------------------|
                      (Gm)
e|-----------------------------------------------------|
b|-----------------------------------------------------|
g|------------15h17-15h17~-----------15h17-17-17p15----|
D|---17-17-17---------------17-17-17-------------------|
A|-----------------------------------------------------|
E|-----------------------------------------------------|
      Personas   extrañas   hablan  de   quien   fui

                      (Gm)
e|------------------------------------------------------|
b|------------------------------------------------------|
g|-----------15h17-17-17p15-----------15h17-17-17p15----|
D|--17-17-17-----------------17-17-17-----------------17|
A|------------------------------------------------------|
E|------------------------------------------------------|
    Pretenden   darme    valor   sin   que   sepa   nada
                       (F)
e|-----------------------------------------------|
b|-----------------------------------------------|
g|-----------------------------------------------|
D|--19-x-x-x-19-x-x-x-19-x-x-x-19-x-x-x-19-x-x-x-|
A|-----------------------------------------------|
E|-----------------------------------------------|
     No hay necesidad             ni siquiera 

                 (Gm)
e|-----------------------------------|
b|-----------------------------------|
g|-----------15h17-17-17p15----------|
D|--17-17-17----------------17-15-17~|
A|-----------------------------------|
E|-----------------------------------|
              De llorar
                  (Gm)
e|--------------------------------------|
b|-----------------15h18-18p15----------|
g|-----------15h17-------------17p15----|
D|--17-17-17-------------------------17~|
A|--------------------------------------|
E|--------------------------------------|
             Por estar así
                       (Gm)
e|-----------------------------------------------------|
b|-----------------------------------------------------|
g|------------15h17-15h17~-----------15h17-17-17p15----|
D|---17-17-17---------------17-17-17-------------------|
A|-----------------------------------------------------|
E|-----------------------------------------------------|
     Mi amnesia me dice        absolutamente 

     (F)                  (Am)
e|-------------------------------------------------|
b|-------------------------------------------------|
g|-------------------------------------------------|
D|--19-x-x-x-19-x-x-x-19-x-x-x-19-x-x-x-19-x-x-x-19|
A|-------------------------------------------------|
E|-------------------------------------------------|
   Nada mas   que   esa    sensación  de   ansiedad

Coro:

A#       Eb
En ese camino largo
Dm
Que un día me vio caminar
A#          Eb
Queme una biografía
Dm
Y sople cenizas del ayer
A#           Eb
No intenten enseñarme
(Rifft 2)Dm
Quien me quiso y a quien debo amar
A#          Eb
Comienza el día cero
(Rifft 1)Dm
Y mañana su continuidad...
 A#              
Sha-ra-da-ra da-daun
Eb
Sha-ra-da-ra da-daun
(Rifft 2) Dm
Y soplé cenizas del ayer

(De fondo sigue el sha-ra-da-ra-da-daun)

A#
Sha-ra-da-ra da-daun
Eb
Sha-ra-da-ra da-daun
(Rifft 2)Dm
Y sople cenizas de mi ayer
A#            Eb
No intenten enseñarme
(Rifft 1)Dm
Sha-ra-da-ra da-daun
Dm
Sha-ra-da-ra da-daun
A#
Sha-ra-da-ra da-daun
Eb
Sha-ra-da-ra da daun
(Rifft 2)Dm
Quien me quiso y a quien debo amar.

(Ahora, voy a poner el Rifft 1 y 2, estos los hace una segunda 
guitarra que solo entra para hacer los riffts, ahora bien, 
para hacerlos a la perfección ,pongan un distor con delay muy 
bajo y consíganse un "Slide" de metal o plástico para poder 
deslizar los riffts a la perfección, y también para hacer el 
solo, para hacer los riffts mantengan la pastilla grave de la 
guitarra, y para hacer el solo cambien a la pastilla aguda, yo 
les diré cuando hacerlo, esto lo sugiero para que la toquen 
idéntica al disco)

""Rifft 1""
e|-----------------------------------------------|
b|-----------------------------------------------|
g|--\\\\\\\\\\\17~~~~~~//////14~~~~/////////////-|
D|-----------------------------------------------|
A|-----------------------------------------------|
E|-----------------------------------------------|
  ""Rifft 2""
e|-----------------------------------------------|
b|-----------------------------------------------|
g|--\\\\\\\\\\\17~~~~~~\\19/////////14/////////--|
D|-----------------------------------------------|
A|-----------------------------------------------|
E|-----------------------------------------------|

(Aquí la guitarra uno cambia de canal claro a un 
distorsionador y hace los tonos con quinta, 
mientras la guitarra 
que hace los riffts cambia de la pastilla grave a la pastilla 
aguda para lograr a la perfección el sonido del solo, 
trata de hacer un slide de nota de A#5 a Eb5 por que se escucha 
de lujo, y es un arreglo básico en esta rola, así que 
inténtelo)

Solo:   (3:16/17 min) 
    A#5                 Eb5              D5
e|--------17/18/17~-----------------------------------------|
b|------------------18~/20~---13/15/13-13/15////11v~~~------|
g|----------------------------------------------------------|
D|----------------------------------------------------------|
A|----------------------------------------------------------|
E|----------------------------------------------------------|
   (Hasta aquí, se ocupa el slide, la siguiente parte se toca 
normal así como la voy a poner sin slide)

        A#5  (3:28 min) Eb5          D5
e|--------------------17brp15~~--17b-17br-b~~~~~~~~~~~---|
b|-----------------18--------------------------------------|
g|--\\\\\\\\\\\\\~~----------------------------------------|
D|---------------------------------------------------------|
A|---------------------------------------------------------|
E|---------------------------------------------------------|
    Mientras el full final del solo suena y sube cada ve mas
      Beto canta........

Quien me quiso y a quien debo amar.

(Para el final la guitarra cambia otra vez de distorsionador a 
canal claro, con el cual haces toda la canción, échale ganas ya 
estamos en el final)

Final:

  (3:39 min)          (Gm)
e|------------------------------------------|
b|---------------------15h18-15p18----------|
g|---------------15h17-------------17p15----|
D|--17~-17-17-17-------------------------17~|
A|------------------------------------------|
E|------------------------------------------|
           
            (Gm)
e|-----------------------------------|
b|-----------------------------------|
g|-----------15h17-17-17p15----------|
D|--17-17-17----------------17-15-17~|
A|-----------------------------------|
E|-----------------------------------|
               (Gm)
e|--------------------------------------|
b|-----------------15h18-15p18----------|
g|-----------15h17-------------17p15----|
D|--17-17-17-------------------------17~|
A|--------------------------------------|
E|--------------------------------------|

            (Gm)
e|-----------------------------------|
b|-----------------------------------|
g|-----------15h17-17-17p15----------|
D|--17-17-17----------------17-15-17~|
A|-----------------------------------|
E|-----------------------------------|
               (Gm)
e|--------------------------------------|
b|-----------------15h18-15p18----------|
g|-----------15h17-------------17p15----|
D|--17-17-17-------------------------17~|
A|--------------------------------------|
E|--------------------------------------|

                (Gm)
e|-----------------------------------|
b|-----------------------------------|
g|-----------15h17-17-17p15----------|
D|--17-17-17----------------17-15-17~|
A|-----------------------------------|
E|-----------------------------------|
    (3:53 min)  (Gm)
e|--------------------------------------|
b|-----------------15h18-15p18----------|
g|-----------15h17-------------17p15----|
D|--17-17-17-------------------------17~|
A|--------------------------------------|
E|--------------------------------------|

           (Gm)
e|-----------------------------------|
b|-----------------------------------|
g|-----------15h17-17-17p15----------|
D|--17-17-17----------------17-15-17~|
A|-----------------------------------|
E|-----------------------------------|
          
                   (Gm)
e|--------------------------------------|
b|-----------------15h18-15p18----------|
g|-----------15h17-------------17p15----|
D|--17-17-17-------------------------17~|
A|--------------------------------------|
E|--------------------------------------|

            (Gm)
e|-----------------------------------|
b|-----------------------------------|
g|-----------15h17-17-17p15----------|
D|--17-17-17----------------17-15-17~|
A|-----------------------------------|
E|-----------------------------------|
               (Gm)
e|--------------------------------------|
b|-----------------15h18-15p18----------|
g|-----------15h17-------------17p15----|
D|--17-17-17-------------------------17~|
A|--------------------------------------|
E|--------------------------------------|

   (4:05 min)  (Gm)
e|-----------------------------------|
b|-----------------------------------|
g|-----------15h17-17-17p15----------|
D|--17-17-17----------------17-15-17~|
A|-----------------------------------|
E|-----------------------------------|
                 (Gm)
e|-----------------------------------|
b|-----------------------------------|
g|-----------15h17-17-17p15----------|
D|--17-17-17----------------17-15-17~|
A|-----------------------------------|
E|-----------------------------------|

                 (Gm)
e|-----------------------------------|
b|-----------------------------------|
g|-----------15h17-17-17p15----------|
D|--17-17-17----------------17-15-17~|
A|-----------------------------------|
E|-----------------------------------|

                  (Gm)
e|--------------------------------------|
b|-----------------15h18-15p18----------|
g|-----------15h17-------------17p15----|
D|--17-17-17-------------------------17~|
A|--------------------------------------|
E|--------------------------------------|

   (4:15 min)           (Gm)
e|----------------------------------------------------------|
b|----------------------------------------------------------|
g|-----------------------------15h17-17-17p15---------------|
D|--17-x-x-x-17-x-x-x-17-17-17----------------17-15-17-17-x-|
A|----------------------------------------------------------|
E|----------------------------------------------------------|

                   (Gm)
e|----------------------------------------------------------|
b|----------------------------------------------------------|
g|-----------------------------15h17-17-17p15---------------|
D|--17-x-x-x-17-x-x-x-17-17-17----------------17-15-17-17-x-|
A|----------------------------------------------------------|
E|----------------------------------------------------------|

Fade out..........
 (Se va yendo el sonido poco a poco, hasta quedar en silencio completo)

------------------------------------------------------------------------
Afinación:    (Normal)

Notas Ocupadas:  Gm, F, Am, A#, Eb, Dm, A#5, Eb5, D5


Traducción de notas ocupadas:
  Gm        
e|--3-|      
b|--3-|
g|--3-|
D|--5-|
A|--5-|
E|--3-|

    F
e|--1-|
b|--1-|
g|--2-|
D|--3-|
A|--3-|
E|--1-|

   Am  
e|--5-|
b|--5-|
g|--5-|
D|--7-|
A|--7-|
E|--5-|

   A# (Esta nota ocúpala solo en el coro)
e|--6-|
b|--6-|
g|--7-|
D|--8-|
A|--8-|
E|--6-|

   Eb
e|--6-|
b|--6-|
g|--8-|
D|--8-|
A|--6-|
E|--x-|

   Dm
e|--5-|
b|--6-|
g|--7-|
D|--7-|
A|--5-|
E|--5-|
(Las siguientes notas se ocupan con distorsionador)

   A#5 (Esta nota ocúpala en el solo)
e|--x-|
b|--x-|
g|--3-|
D|--3-|
A|--1-|
E|--x-|

   Eb5
e|--x-|
b|--x-|
g|--8-|
D|--8-|
A|--6-|
E|--x-|

   D5
e|--x-|
b|--x-|
g|--7-|
D|--7-|
A|--5-|
E|--x-|





Comments


Popular La Ley tabs & chords
1-800 Dual Chords
A Veces Chords
Intenta Amar Chords
Animal Tabs
Cielo Market 1 Tabs
El Duelo 2 Tabs
Mentira 2 Tabs
Angie Ukulele
Surazul Ukulele
Te Necesito Ukulele


Song lyrics



↑ Back to top | Tablatures and chords are parodies/interpretations of the original songs. You may use it for private study, scholarship, research or language learning purposes only
© 2014 AZChords.com Contact us | Privacy policy | DMCA | Add/correct tabs | Request tabs | Top 50 tabs