» » »

La Ley, Dia Cero Bass tabs (ver.1)

Artists:  A B C D E F G H I J K L M N O P Q R S T U V W X Y Z # 

Dia Cero Bass tabs (ver.1)

La Ley Tabs
 Rating:
4/5 (4 votes)
Dia Cero lessons Tabs too difficult? Try these video lessons and learn fast
1
                -------------------------------------------------------------------------------
-------------------------------------------------------------------------------


Tuning: standard BEADG

Intro, verse 1:
G|----------------------------------------------------------|
D|----------------------------------------------------------|
A|----------------------------------------------------------|
E|--------6h8--------------8-----------6h8--------------8---|x6
B|-8-8--8-----8--8h11h8--8---8--8-8--8-----8--8h11h8--8---8-|

Bridge:
G|--------------------------------------------------------|
D|--------------------------------------------------------|
A|--------------------------------------------------------|
E|--------4h6-------------6-----------4h6-------------6---|
B|-6-6--6-----6--6-9-6--6------6-6--6-----6--6-9-6--6---6-|

G|----------------------------------------------------------|
D|----------------------------------------------------------|
A|----------------------------------------------------------|
E|--------6h8--------------8-----------6h8--------------8---|
B|-8-8--8-----8--8h10h8--8---8--8-8--8-----8--8h10h8--8---8-|

Verse 2:
G|----------------------------------------------------------|
D|----------------------------------------------------------|
A|----------------------------------------------------------|
E|--------6h8--------------8-----------6h8--------------8---|x2
B|-8-8--8-----8--8h11h8--8---8--8-8--8-----8--8h11h8--8---8-|

Bridge:
G|--------------------------------------------------------|
D|--------------------------------------------------------|
A|--------------------------------------------------------|
E|--------4h6-------------6-----------4h6-------------6---|
B|-6-6--6-----6--6h9h6--6------6-6--6-----6--6h9h6--6---6-|

G|--------------------------------------------------------|
D|--------------------------------------------------------|
A|--------3h5-------------5-----------3h5-------------5---|
E|-5-5--5-----5--5h8h5--5---5--5-5--5-----5--5h8h5--5---5-|
B|--------------------------------------------------------|

Chorus:
G|-------------------------------------------------------------------------|
D|-------------------------------------------------------------------------|
A|-------------------------------------------------------------------------|
E|-6--6-6--6-------------------------3h5---------3h5-------3h5---------3h5\|x2
B|-----------6--4--4-x--4--4-6--3--3-----3--3--3------3--3-----3--3--3-----|

Bridge, verse 3:
G|----------------------------------------------------------|
D|----------------------------------------------------------|
A|----------------------------------------------------------|
E|--------6h8--------------8-----------6h8--------------8---|x3
B|-8-8--8-----8--8h11h8--8---8--8-8--8-----8--8h11h8--8---8-|

Bridge, verse 4:
G|--------------------------------------------------------|
D|--------------------------------------------------------|
A|--------------------------------------------------------|
E|--------4h6-------------6-----------4h6-------------6---|
B|-6-6--6-----6--6h9h6--6---6--6-6--6-----6--6h9h6--6---6-|

G|----------------------------------------------------------|
D|----------------------------------------------------------|
A|----------------------------------------------------------|
E|--------6h8--------------8-----------6h8--------------8---|x2
B|-8-8--8-----8--8h11h8--8---8--8-8--8-----8--8h11h8--8---8-|

Bridge:
G|--------------------------------------------------------|
D|--------------------------------------------------------|
A|--------------------------------------------------------|
E|--------4h6-------------6-----------4h6-------------6---|
B|-6-6--6-----6--6h9h6--6---6--6-6--6-----6--6h9h6--6---6-|

G|--------------------------------------------------------|
D|--------------------------------------------------------|
A|--------3h5-------------5-----------3h5-------------5---|
E|-5-5--5-----5--5h8h5--5---5--5-5--5-----5--5h8h5--5---5-|
B|--------------------------------------------------------|

Chorus:
G|-------------------------------------------------------------------------|
D|-------------------------------------------------------------------------|
A|-------------------------------------------------------------------------|
E|-6--6-6--6-------------------------3h5---------3h5-------3h5---------3h5\|x8
B|-----------6--4--4-x--4--4-6--3--3-----3--3--3------3--3-----3--3--3-----|

Bridge:
G|---------------------------------------------------------------------------|
D|---------------------------------------------------------------------------|
A|---------------------------------------------------------------------------|
E|-6---/11-------------------------------------------------------------10\---|
B|------------3-------------------------------------------------------8------|

Outro (fade out):
G|----------------------------------------------------------|
D|----------------------------------------------------------|
A|----------------------------------------------------------|
E|--------6h8--------------8-----------6h8--------------8---|x11
B|-8-8--8-----8--8h11h8--8---8--8-8--8-----8--8h11h8--8---8-|

===============================================================================
Notes: 

Corrections by Mario Rivas.

If You have problems with this tab, write Me a mail what's wrong with it
instead of giving it a bad rating! It'd be better for everyone! Thx!


| /  slide up
| \  slide down
| h  hammer-on
| p  pull-off
| ~  vibrato
| +  harmonic
| x  Mute note
===============================================================================
            
Submit corrections

comments powered by Disqus
↑ Back to top | La Ley Bass for Dia Cero. Lyrics for acoustic guitar and electric guitar. 1 Tablatures and chords are parodies/interpretations of the original songs. You may use it for private study, scholarship, research or language learning purposes only