>
 >
Want

Want Bass Tabs

Lagwagon - Want chords, tabs, tablatures, lyrics

Guitar lessons | Add/correct | Request | Top 50 tabs Artists:  A B C D E F G H I J K L M N O P Q R S T U V W X Y Z 0-9

Want Bass Tabs – Lagwagon

CD, Sheet music, Poster

Do you like Want? Share with your friends now
Bass TabsTabs
Intro and Chorus (the "Ieiei eieiei i wantchoo" part)
G|----------7-6----------------6h7-6-----------7---6----------------------|
D|--7-7-7-------7-------------------------------------7-------------------|
A|-------------------7--7-7-7---------7--9--9------------5--5-5--5-5------|
E|-------------------------------------------------------------------9-7--|

Repeat 3 times, then do this one
G|----------7-6----------------6h7-6-----------7---6----------------------|
D|--7-7-7-------7--------------------------------------7------------------|
A|-------------------7--7-7-7---------7--9--9------------5--5-5--5-5-5-5--|
E|------------------------------------------------------------------------|

The last one, just keep the 5 going (as in replace the 9 and 7 with 5's
on the A string), and it'll come into this part, the pre-verse, i'd call
it.
G|--------------------------------------------------------------------------------|
D|--------------------------------------------------------------------------------|
A|-5-5-5---5-5-5--------------------4--4-4----4--------------------4--4-4---4-----|
E|------------------5--5-5--5-5-5-5---------5----5-5--5-5--5-5-5-5--------5---5-5-|

G|----------------------------------------------------------------------------|
D|----------------------------------------------------------------------------|
A|---------------4--4-4----4----------------------7-7-7-7-7-7-7-7-------------|
E|--5-5--5-5-5-5---------5----5-5--5-5--5-5-5-5-------------------------------|

Verse:
G|-----------------------------------------------------------------------------
D|-----------------------------------------------------------------------------
A|----------------------------------------5--5-5-5-5-5-5-5-5-5-5-5-5-5-5-------
E|--5--5-5-5-5-5-5-5-2--2-2-2-2-2-2--------------------------------------------

G|----------------------------------------------------------------------------|
D|----------------------------------------------------------------------------|
A|----------------------------------------5--5-5--5-5--5-5--5-5--5------------|
E|--5--5-5-5-5-5-5-5-2--2-2-2-2-2-2-------------------------------------------|

Repeat as needed

Pre-Chorus Hook Bridge Dealy (I believe the lyrics start with "Dark
secrets..." or something like that)
G|-------------------------------------------------------------------------------|
D|--4-----4-----4-----5-----5-----5-----7-----7-----7-----9-----9-----9----------|
A|------4-----4-----------5-----5------------7-----7-----------9-----9-----------|
E|-------------------------------------------------------------------------------|

Repeat once, then come in with this
G|-------------------------------------------------------------------------------|
D|---5--5-5--5-5-5---------------------------------------------------------------|
A|--------------------5--5-5--5-5-5----------------------------------------------|
E|-------------------------------------------------------------------------------|

then come in with the pre-verse and do all that again. Then when you get
back here, do the chorus riff.
Then, after that, do the pre-verse, and the verse, but you skip the
pre-chorus hook bridge dealy, and go straight into the chorus, but do
the first part all four times.  Then when the guitar comes in, keep up
the chorus part, but this time, use the 4th time part all the way
through.  Does that make sense?  Just go back to the beginning of this
tab, and do the first line 4 times, then the second line 4 times.  And
that's the last chorus.

Ending
G|------------------------------------------------------------|
D|-----------7------------------------------------------------|
A|--5--5-5----------------------------------------------------|
E|------------------------------------------------------------|

And that's the end of that.  This has to be one of my favorite songs.





Comments


Popular Lagwagon tabs & chords
A Feedbag Of Truck Stop Poetry Bass Tabs
No Conviction Bass Tabs
Automatic 2 Tabs
Billionaire 2 Tabs
Bye For Now Tabs
Choke 1 Tabs
Gun In Your Head Tabs
Jimmy Johnson Tabs
May 16 2 Tabs
May 16 3 Tabs


Song lyrics



↑ Back to top | Tablatures and chords are parodies/interpretations of the original songs. You may use it for private study, scholarship, research or language learning purposes only
© 2014 AZChords.com Contact us | Privacy policy | DMCA | Add/correct tabs | Request tabs | Top 50 tabs