>
 >
Unfurnished

Unfurnished Guitar Tabs

Lagwagon - Unfurnished chords, tabs, tablatures, lyrics

Guitar lessons | Add/correct | Request | Top 50 tabs Artists:  A B C D E F G H I J K L M N O P Q R S T U V W X Y Z 0-9

Unfurnished Guitar Tabs – Lagwagon

CD, Sheet music, Poster

Do you like Unfurnished? Share with your friends now
Drum TabsTabs
Intro: 

Gtr. 1 play chords, Gtr. 2 play notes written in above in brackets
e|-(14)-------------(12)-------------(15)------------------------------|
B|---------------------------------------------------------------------|
G|--7-7-7-7-7-7-7-7----------------------------------------------------|
D|--7-7-7-7-7-7-7-7--7-7-7-7-7-7-7-7--5-5-5-5-5-5-5-5--5-5-5-5-5-5-5-5-|
A|--5-5-5-5-5-5-5-5--7-7-7-7-7-7-7-7--5-5-5-5-5-5-5-5--5-5-5-5-5-5-5-5-|
E|-------------------5-5-5-5-5-5-5-5--3-3-3-3-3-3-3-3--3-3-3-3-3-3-3-3-|

e|-(14)-------------(12)-----------------both guitars-play-this--------|
B|---------------------------------------------------------------------|
G|--7-7-7-7-7-7-7-7----------------------------------------------------|
D|--7-7-7-7-7-7-7-7--7-7-7-7-7-7-7-7--5-~~~~~~~~~~~~~~~~~~~~~~~~~~~5-7-|
A|--5-5-5-5-5-5-5-5--7-7-7-7-7-7-7-7--5-~~~~~~~~~~~~~~~~~~~~~~~~~~~5-7-|
E|-------------------5-5-5-5-5-5-5-5--3-~~~~~~~~~~~~~~~~~~~~~~~~~~~3-5-|



Verse 1:

Gtr. 1
                                                      
e|--------------------------------------------------------------------|
B|--------------------------------------------------------------------|
G|-7-7-7-7-7-7-7-7----------------------------------------------------|
D|-7-7-7-7-7-7-7-7--7-7-7-7-7-7-7-7--5-5-5-5-5-5-5-5--5-5-5-5-5-5-5-5-|
A|-5-5-5-5-5-5-5-5--7-7-7-7-7-7-7-7--5-5-5-5-5-5-5-5--5-5-5-5-5-5-5-5-|
E|------------------5-5-5-5-5-5-5-5--3-3-3-3-3-3-3-3--3-3-3-3-3-3-3-3-|
   **w/ Gtr. 2**
e|--------------------------------------------------------------------|
B|--------------------------------------------------------------------|
G|-7-7-7-7-7-7-7-7----------------------------------------------------|
D|-7-7-7-7-7-7-7-7--4-4-4-4-4-4-4-4--5-5-5-5-5-5-5-5--5-5-5-5-5-5-5-5-|
A|-5-5-5-5-5-5-5-5--4-4-4-4-4-4-4-4--5-5-5-5-5-5-5-5--5-5-5-5-5-5-5-5-|
E|------------------2-2-2-2-2-2-2-2--3-3-3-3-3-3-3-3--3-3-3-3-3-3-3-3-|

**Gtr. 2 play this over the above line**

e|-----------------------------------------------------------------------|
B|-----------------------------------------------------------------------|
G|-7-7-7-7-7-7-7-7--6-6-6-6-6-6-6-12-12-12-12-12-12-12-12-12-12-12-12-12-|
D|-----------------------------------------------------------------------|
A|-5-5-5-5-5-5-5-5--4-4-4-4-4-4-4-10-10-10-10-10-10-10-10-10-10-10-10-10-|
E|-----------------------------------------------------------------------|



Chorus:

Gtr. 1
e|-------||---------------------------------------||---|
B|-------||---------------------------------------||---|
G|-7-6-7-||*-7-7-7-7-7-7-------------------------*||-9-|
D|-7-6-7-||--7-7-7-7-7-7-2-2-2-2-2-2-5-5-5-5-5-5--||-9-|
A|-5-4-5-||*-5-5-5-5-5-5-2-2-2-2-2-2-5-5-5-5-5-5-*||-7-|
E|-------||--------------0-0-0-0-0-0-3-3-3-3-3-3--||---|

e|-------------------------------------------------|------------------------|
B|-------------------------------------------------|------------------------|
G|-7-7-7-7-7-7-------------------------------------|-7-7-7-7-7-7------------|
D|-7-7-7-7-7-7-4-4-4-4-4-4-5-5-5-5-5-5-7-7-7-7-7-7-|-7-7-7-7-7-7-7-7-7-7-7-7|
A|-5-5-5-5-5-5-4-4-4-4-4-4-5-5-5-5-5-5-7-7-7-7-7-7-|-5-5-5-5-5-5-7-7-7-7-7-7|
E|-------------2-2-2-2-2-2-3-3-3-3-3-3-5-5-5-5-5-5-|-------------5-5-5-5-5-5|


Gtr. 2 
e|-------||---------------------------------------------------------||---|
B|-------||---------------------------------------------------------||---|
G|-7-6-7-||*-14-14-14-14-14-14-13-13-13-13-13-13-12-12-12-12-12-12-*||-9-|
D|-------||---------------------------------------------------------||---|
A|-5-4-5-||*-12-12-12-12-12-12-11-11-11-11-11-11-10-10-10-10-10-10-*||-7-|
E|-------||---------------------------------------------------------||---|

e|-----------------------------------------------------|--------------------|
B|-----------------------------------------------------|--------------------|
G|7-7-7-7-7-7-6-6-6-6-6-6-12-12-12-12-12-12-9-9-9-9-9-9|7-7-7-7-7-6-6-6-6-6-6
D|-----------------------------------------------------|--------------------|
A|5-5-5-5-5-5-4-4-4-4-4-4-10-10-10-10-10-10-7-7-7-7-7-7|5-5-5-5-5-4-4-4-4-4-4
E|-----------------------------------------------------|--------------------|


Bridge 1:

e|---------------------------|-----------------------------|
B|---------------------------|-----------------------------|
G|---------------------------|-----------------------------|
D|-5---5-5-5---5-5-5--5-5-2--|--5---5-5-5---5-5-5---5-5-7--|
A|-5---5-5-5---5-5-5--5-5-2--|--5---5-5-5---5-5-5---5-5-7--|
E|-3---3-3-3---3-3-3--3-3-0--|--3---3-3-3---3-3-3---3-3-5--|


Verse 2:

Gtr. 1
                                                                                                                  
e|--------------------------------------------------------------------|
B|--------------------------------------------------------------------|
G|-7-7-7-7-7-7-7-7----------------------------------------------------|
D|-7-7-7-7-7-7-7-7--7-7-7-7-7-7-7-7--5-5-5-5-5-5-5-5--5-5-5-5-5-5-5-5-|
A|-5-5-5-5-5-5-5-5--7-7-7-7-7-7-7-7--5-5-5-5-5-5-5-5--5-5-5-5-5-5-5-5-|
E|------------------5-5-5-5-5-5-5-5--3-3-3-3-3-3-3-3--3-3-3-3-3-3-3-3-|

e|-----------------------------------------------------------------|
B|-----------------------------------------------------------------|
G|-7-7-7-7-7-7-7-7-------------------------12-12-12--11-11-11--9-9-|
D|-7-7-7-7-7-7-7-7--7-7-7-7-7-7-7-7--5-5-5-------------------------|
A|-5-5-5-5-5-5-5-5--7-7-7-7-7-7-7-7--5-5-5-10-10-10---9--9--9--7-7-|
E|------------------5-5-5-5-5-5-5-5--3-3-3-------------------------|

                                 p.m.  ^^^^   ^^^^  
^^^^                 
e|----------------------------------------------------------|
B|----------------------------------------------------------|
G|-7-7-7-7-7-7-7--------------------------------------------|
D|-x-x-x-x-x-x-x--7-7-7-7-7-7-7-7--5-5--5-5-4--5-5-5--5-5-7-|
A|-5-5-5-5-5-5-5--7-7-7-7-7-7-7-7--5-5--5-5-4--5-5-5--5-5-7-|
E|----------------5-5-5-5-5-5-5-5--3-3--3-3-2--3-3-3--3-3-5-|

e|--------------------------------------------------------------------|
B|--------------------------------------------------------------------|
G|-7-7-7-7-7-7-7-7----------------------------------------------------|
D|-7-7-7-7-7-7-7-7--4-4-4-4-4-4-4-4--5-5-5-5-5-5-5-5--5-5-5-5-5-5-5-5-|
A|-5-5-5-5-5-5-5-5--4-4-4-4-4-4-4-4--5-5-5-5-5-5-5-5--5-5-5-5-5-5-5-5-|
E|------------------2-2-2-2-2-2-2-2--3-3-3-3-3-3-3-3--3-3-3-3-3-3-3-3-|


Repeat Chorus


Bridge 2:  (Gtr. 2 play the following harmonics)

e|-------------------------------------|
B|-------------------------------------|
G|------------5(N.H.)------------------|
D|--5(N.H.)------------5(N.H)--5(N.H.)-|
A|-------------------------------------|
E|-------------------------------------|
  
Gtr. 1                       x 3
e|-----------------------------|------------------------------|
B|-----------------------------|------------------------------|
G|-----------------------------|------------------------------|
D|-5-5---5-5-5---5-5-5--5-5-2--|--5-5---5-5-5---5-5-5---5-5---|
A|-5-5---5-5-5---5-5-5--5-5-2--|--5-5---5-5-5---5-5-5---5-5---|
E|-3-3---3-3-3---3-3-3--3-3-0--|--3-3---3-3-3---3-3-3---3-3---|


Some other part:
   It's already killed me...
e|---------------------------------------------------------------|
B|---------------------------------------------------------------|
G|---------------------------4~~~~~~~~~~~~~~~~~------------------|
D|-7~~~~~~~~~~~~~~~~~~~~~~~--4~~~~~~~~~~~~~~~~~-5~~~~~~~~~~~~~~~-|
A|-7~~~~~~~~~~~~~~~~~~~~~~~--2~~~~~~~~~~~~~~~~~-5~~~~~~~~~~~~~~~-|
E|-5~~~~~~~~~~~~~~~~~~~~~~~---------------------3~~~~~~~~~~~~~~~-|


Gtr. 1

e|-------------------------------------------------------------------------|
B|-------------------------------------------------------------------------|
G|-7-7-7-7-7-7-7-7-7-7-7-7-------------------------------------------------|
D|-7-7-7-7-7-7-7-7-7-7-7-7-4-4-4-4-4-4-4-4-4-4-4-4-5-5-5-5-5-5-5-5-5-5-5-5-|
A|-5-5-5-5-5-5-5-5-5-5-5-5-4-4-4-4-4-4-4-4-4-4-4-4-5-5-5-5-5-5-5-5-5-5-5-5-|
E|-------------------------2-2-2-2-2-2-2-2-2-2-2-2-3-3-3-3-3-3-3-3-3-3-3-3-|

e|-------------------------|
B|-------------------------|
G|-------------------------|
D|-7-7-7-7-7-7-7-7-7-7-7-7-|
A|-7-7-7-7-7-7-7-7-7-7-7-7-|
E|-5-5-5-5-5-5-5-5-5-5-5-5-|

Gtr. 2
e|-------------------------------------------------------------------------|
B|-------------------------------------------------------------------------|
G|-7-7-7-7-7-7-7-7-7-7-7-7-6-6-6-6-6-6-6-6-6-6-6-6-------------------------|
D|-------------------------------------------------7-7-7-7-7-7-7-7-7-7-7-7-|
A|-5-5-5-5-5-5-5-5-5-5-5-5-4-4-4-4-4-4-4-4-4-4-4-4-------------------------|
E|-------------------------------------------------5-5-5-5-5-5-5-5-5-5-5-5-|

e|-------------------------|
B|-------------------------|
G|-------------------------|
D|-7-7-7-7-7-7-7-7-7-7-7-7-|
A|-------------------------|
E|-5-5-5-5-5-5-5-5-5-5-5-5-|


Very fast palm muted part:
e|-----------------------------------------------------------------|
B|-----------------------------------------------------------------|
G|-----------------------------------------------------------------|
D|-7-7-7-7-7-7-7-7-------------------------------------------------|
A|-5-5-5-5-5-5-5-5-7-7-7-7-7-7-7-7-9-9-9-9-9-9-9-9-5-5-5-5-5-5-5-5-|
E|-----------------5-5-5-5-5-5-5-5-7-7-7-7-7-7-7-7-3-3-3-3-3-3-3-3-|

e|-----------------------------------------------|
B|-----------------------------------------------|
G|-----------------------------------------------|
D|-7-7-7-7-7-7-7-7------------------5~~~~~~~~~~~-|
A|-5-5-5-5-5-5-5-5-7-7-7-7-7-7-7-7--5~~~~~~~~~~~-|
E|-----------------5-5-5-5-5-5-5-5--3~~~~~~~~~~~-|



Last Chorus:

Gtr. 1
e|-------||---------------------------------------||
B|-------||---------------------------------------||
G|-7-6-7-||*-7-7-7-7-7-7-------------------------*||
D|-7-6-7-||--7-7-7-7-7-7-2-2-2-2-2-2-5-5-5-5-5-5--||
A|-5-4-5-||*-5-5-5-5-5-5-2-2-2-2-2-2-5-5-5-5-5-5-*||
E|-------||--------------0-0-0-0-0-0-3-3-3-3-3-3--||

e|-------------------------------------------------|------------------------|
B|-------------------------------------------------|------------------------|
G|-7-7-7-7-7-7-------------------------------------|-7-7-7-7-7-7------------|
D|-7-7-7-7-7-7-4-4-4-4-4-4-5-5-5-5-5-5-7-7-7-7-7-7-|-7-7-7-7-7-7-2-2-2-2-2-2|
A|-5-5-5-5-5-5-4-4-4-4-4-4-5-5-5-5-5-5-7-7-7-7-7-7-|-5-5-5-5-5-5-2-2-2-2-2-2|
E|-------------2-2-2-2-2-2-3-3-3-3-3-3-5-5-5-5-5-5-|-------------0-0-0-0-0-0|

e|-------------3------3-------3-------4--------|
B|-------------3------3-------3-------3--------|
G|-------------4------4-------4-------4--------|
D|-4-----7-----5~~~~~-5~~~~~~-5~~~~~~-5~~~~~---|
A|-4-----7-----5~~~~~-5~~~~~~-5~~~~~~-5~~~~~---|
E|-2-----5-----3~~~~~-3~~~~~~-3~~~~~~-3~~~~~---|

Gtr. 2 
e|-------||---------------------------------------------------------||
B|-------||---------------------------------------------------------||
G|-7-6-7-||*-14-14-14-14-14-14-13-13-13-13-13-13-12-12-12-12-12-12-*||
D|-------||---------------------------------------------------------||
A|-5-4-5-||*-12-12-12-12-12-12-11-11-11-11-11-11-10-10-10-10-10-10-*||
E|-------||---------------------------------------------------------||

e|-----------------------------------------------------|--------------------|
B|-----------------------------------------------------|--------------------|
G|14-14-14-14-14-14-6-6-6-6-6-6-7-7-7-7-7-7-9-9-9-9-9-9|7-7-7-7-7-7-9-9-9-9-9
D|-----------------------------------------------------|--------------------|
A|12-12-12-12-12-12-4-4-4-4-4-4-5-5-5-5-5-5-7-7-7-7-7-7|5-5-5-5-5-5-7-7-7-7-7
E|-----------------------------------------------------|--------------------|

e|---------------|
B|---------------|
G|-6----9----7---|
D|---------------|
A|-4----7----5---|
E|---------------|





Comments


Popular Lagwagon tabs & chords
Never Stops Bass Tabs
Leave The Light On Chords
Angry Days 1 Tabs
Beer Goggles Tabs
Everything Turns Grey Tabs
Going South Tabs
May 1 Tabs
The Chemist Tabs
Want Tabs
Fallen Ukulele


Song lyrics



↑ Back to top | Tablatures and chords are parodies/interpretations of the original songs. You may use it for private study, scholarship, research or language learning purposes only
© 2014 AZChords.com Contact us | Privacy policy | DMCA | Add/correct tabs | Request tabs | Top 50 tabs