» » »

Lagwagon, Raise A Family Bass tabs (ver.1)

Artists:  A B C D E F G H I J K L M N O P Q R S T U V W X Y Z # 

Raise A Family Bass tabs (ver.1)

Lagwagon Tabs
 Rating:
4/5 (4 votes)
Raise A Family lessons Tabs too difficult? Try these video lessons and learn fast
                

G-------------------------------------------------------------------------------------|
D-------------------------------------------------------------------------------------|
A--------------------------------7--7--7----------------------------------------------|
E--5--5--7--7--5--5--7--7-------------------------------------------------------------|




G--------------------------------------------------------------------------------------|
D-------------------------------------------------------------------------------------o|
A-------------------------------------------------------------------------------------o|
E--0--0--0--4--4--4--2--2--2--4--4--4--5--5--5--5--5--5--7--7--7--7----------|--2--2---|




G-----------------------------------------------|------------------------|
D----------------------------------------------o|------------------------|
A----4-6-7---6-7-9-x-x-7-x-x-7-----------o|---4-6-7---6-7-9-6-6-6-6-7----|
E-5---------7-----------------------------------|-5--------7-------------|

G------------------------------------------------------------------------|
D------------------------------------------------------------------------|
A-------6-6-7------6-6-7------6-6-7-7-7-7--------------------------------|
E--5-5---------7-7---------5-5-------------------------------------------|

G----------------------------------------------6-6-----8-8-9-------------|
D-----------------------------------------7-7------9-9-------------------|
A-----4-4-7-7-6-6------6-6-7-7-9-9---------------------------------------|
E-5-5---------------7-7--------------------------------------------------|




G----------------------------------------------------------------------------|-------|
D---------------------------------------------------------------------------o|-------|
A---------------------------------------------------------------------------o|-------|
E--0--0--0--4--4--4--2--2--2--4--4--4--5--5--5--5--5--5--7--7--7--7----------|--2--2-|




G---------------------------------------------|--------------------------------------|
D--------------------------------------------o|--------------------------------------|
A----4-6-7---6-7-9-x-x-7-x-x-7---------o|---4-6-7---6-7-9-6-6-6-6-7------------------|
E-5---------7---------------------------------|-5--------7---------------------------|

G-----------------------------------------------------------------|
D-----------------------------------------------------------------|
A-------6-6-7------6-6-7------6-6-7-7-7-7-------------------------|
E--5-5---------7-7---------5-5------------------------------------|

G----------------------------------------------6-6-----8-8-9------|
D-----------------------------------------7-7------9-9------------|
A-----4-4-7-7-6-6-----6-6-7-7-9-9---------------------------------|
E-5-5-------------7-7---------------------------------------------|
            
Submit corrections

comments powered by Disqus
↑ Back to top | Lagwagon Bass for Raise A Family. Lyrics for acoustic guitar and electric guitar. Tablatures and chords are parodies/interpretations of the original songs. You may use it for private study, scholarship, research or language learning purposes only