>
 >
Owen Meany

Owen Meany Guitar Tabs

Lagwagon - Owen Meany chords, tabs, tablatures, lyrics

Guitar lessons | Add/correct | Request | Top 50 tabs Artists:  A B C D E F G H I J K L M N O P Q R S T U V W X Y Z 0-9

Owen Meany Guitar Tabs – Lagwagon

CD, Sheet music, Poster

Do you like Owen Meany? Share with your friends now
Tabs
                          OWEN MEANEY - Lagwagon 



The orders of the parts are at the end of each guitars section. 
. = Palm Muted 
x = Mute String 
/ = Slide Up 
\ = Slide Down 

Guitar 1 ( Guitar 2's part is at the end of this one ) 
Fig. 1 
|------------------------------------------------------------------| 
|------------------------------------------------------------------| 
|-.-.-.-.-.-.-.--.-.-.-.-.-.-.--.-.-.-.-.-.-.--.-.-.-.-.-.-.-------| 
|------------------------------------------------------------------| 
|-5-5-5-5-5-5-5--5-5-5-5-5-5-5--5-5-5-5-5-5-5--5-5-5-5-5-5-5-------| 
|-3-3-3-3-3-3-3--3-3-3-3-3-3-3--3-3-3-3-3-3-3--3-3-3-3-3-3-3-------| 

|------------------------------------------------------------------| 
|------------------------------------------------------------------| 
|-.-.-.-.-.-.-.--.-.-.-.-.-.-.--.-.-.-.-.-.-.--.-.-.-.-.-.-.-------| 
|------------------------------------------------------------------| 
|-7-7-7-7-7-7-7--7-7-7-7-7-7-7--7-7-7-7-7-7-7--7-7-7-7-7-7-7-------| 
|-5-5-5-5-5-5-5--5-5-5-5-5-5-5--5-5-5-5-5-5-5--5-5-5-5-5-5-5-------|

Fig. 2 
|--------------------------------------| 
|--------------------------------------| 
|--------------------------------------| 
|--------------------------------------| 
|-5-5-5--7-7-7--9---5-5-5--7-7-7---9---| 
|--------------------------------------| 

|--------------------------------------| 
|--------------------------------------| 
|--------------------------------------| 
|--------------------------------------| 
|-5-5-5--7-7-7--9---5-5-5--7-7-7---9---| 
|--------------------------------------| 

|--------------------------------------| 
|--------------------------------------| 
|--------------------------------------| 
|--------------------------------------| 
|-7-7-7--9-9-9--10--7-7-7--9-9-9--10---| 
|--------------------------------------| 

|--------------------------------------| 
|--------------------------------------| 
|--------------------------------------| 
|--------------------------------------| 
|-7-7-7--9-9-9--10--7-7-7--9-9-9--10---| 
|--------------------------------------|

Fig. 3
|------------------------------------------------------------------| 
|------------------------------------------------------------------| 
|-------7------7--------7------7--------7------7--------7------7---| 
|------------------------------------------------------------------| 
|-5-5-5---5-5-----5-5-5---5-5-----5-5-5---5-5-----5-5-5---5-5------| 
|------------------------------------------------------------------| 

|------------------------------------------------------------------| 
|------------------------------------------------------------------| 
|-------7------7--------7------7-------11-----11--------9-----9----| 
|------------------------------------------------------------------| 
|-5-5-5---5-5-----5-5-5---5-5-----9-9-9---9-9-----7-7-7---7-7------| 
|------------------------------------------------------------------| 

Fig. 4
|------------------------------------------------------------------| 
|------------------------------------------------------------------| 
|-7-7-7--7-7-7--7-7-7--12--11-11--9-9-9--9-9-9--9-9-9--11-11--9----| 
|-x-x-x--x-x-x--x-x-x---x---x--x--x-x-x--x-x-x--x-x-x---x--x--x----| 
|-5-5-5--5-5-5--5-5-5--10---9--9--7-7-7--7-7-7--7-7-7---9--9--7----| 
|------------------------------------------------------------------| 

Fig. 5
|------------------------------------------------------------------------------------------------| 
|------------------------------------------------------------------------------------------------| 
|-11-11-11-12-11-11-12-11-11-11-11-12-11-11-12-11-12-12-12-14-12-12-14-12-12-12-12-14-12-12-14-12| 
|-0--0--0--0--0--0--0--0--0--0--0--0--0--0--0--0--0--0--0--0--0--0--0--0--0--0--0--0--0--0--0--0-| 
|------------------------------------------------------------------------------------------------| 
|------------------------------------------------------------------------------------------------| 

Fig. 6 
|----------------------------------------------| 
|----------------------------------------------| 
|-14---14--14--14--14---12-12-12--11-11-----11-| 
|---0----0---0---0---0----0--0--0---0--0--0----| 
|----------------------------------------------| 
|----------------------------------------------| 


Fig. 7 
|----------------------------------------------------------| 
|----------------------------------------------------------| 
|----------------------------------------------------------| 
|-5-5-5--5-5-5--7-7-7--7-7-7--5-5-5--5-5-5--7-7-7--7-7-7---| 
|-5-5-5--5-5-5--7-7-7--7-7-7--5-5-5--5-5-5--7-7-7--7-7-7---| 
|-3-3-3--3-3-3--5-5-5--5-5-5--3-3-3--3-3-3--5-5-5--5-5-5---| 

Fig. 8 
|------------------------------------------------------------| 
|------------------------------------------------------------| 
|-7-7-7--7-7-7-----------------------------------------------| 
|-7-7-7--7-7-7--4-4-4--4-4-4--5-5-5--5-5-5--6-6-6--7-7-7-----| 
|-5-5-5--5-5-5--5-5-5--5-5-5--5-5-5--5-5-5--7-7-7--7-7-7-----| 
|-x-x-x--x-x-x--2-2-2--2-2-2--3-3-3--3-3-3--4-4-4--5-5-5-----| 

Fig. 9
|-----------------------------------------------| 
|-----------------------------------------------| 
|-5----------------7-7--------------------------| 
|-5-------5---2----7-7----4-4-4--5-5-5--7-7-7---| 
|-3-------5---2----5-5----4-4-4--5-5-5--7-7-7---| 
|-3-------3---0-----------2-2-2--3-3-3--5-5-5---| 

Fig. 10
|------------------------------------------------------------------------| 
|------------------------------------------------------------------------| 
|-7-7-7-7-7-7-7---7-7-7-7-7-7-7---12-12-12-12-12-12-12---7-7-7-7-7-7-7---| 
|-7-7-7-7-7-7-7---7-7-7-7-7-7-7----0--0--0--0--0--0--0---7-7-7-7-7-7-7---| 
|-5-5-5-5-5-5-5---5-5-5-5-5-5-5---10-10-10-10-10-10-10---5-5-5-5-5-5-5---| 
|------------------------------------------------------------------------| 

Fig. 11 
|-------------------------------------| 
|-------------------------------------| 
|-7--9--11--12--9--11--9-9-9--9-9-9---| 
|-x--x---x---x--x---x--x-x-x--x-x-x---| 
|-5--7---9--10--7---9--7-7-7--7-7-7---| 
|-------------------------------------| 

Fig. 12 
|-----| 
|-----| 
|-7\--| 
|-7\--| 
|-5\--| 
|-----| 

ORDER: 
FIG. 1 
FIG. 1 
FIG. 2 
FIG. 3 
FIG. 3 
FIG. 4 
FIG. 4 
FIG. 5 
FIG. 6 
FIG. 5 
FIG. 6 
FIG. 7 
FIG. 8 
FIG. 9 
FIG. 7 
FIG. 7 
FIG. 8 
FIG. 4 
FIG. 5 
FIG. 4 
FIG. 5 
FIG. 3 
FIG. 10 
FIG. 4 
FIG. 12 


Guitar 2 

Fig. 1  (Despacio)
|------------------------------------------------------------------| 
|------------------------------------------------------------------| 
|-.-.-.-.-.-.-.--.-.-.-.-.-.-.--.-.-.-.-.-.-.--.-.-.-.-.-.-.-------| 
|------------------------------------------------------------------| 
|-5-5-5-5-5-5-5--5-5-5-5-5-5-5--5-5-5-5-5-5-5--5-5-5-5-5-5-5-------| 
|-3-3-3-3-3-3-3--3-3-3-3-3-3-3--3-3-3-3-3-3-3--3-3-3-3-3-3-3-------| 

|------------------------------------------------------------------| 
|------------------------------------------------------------------| 
|-.-.-.-.-.-.-.--.-.-.-.-.-.-.--.-.-.-.-.-.-.--.-.-.-.-.-.-.-------| 
|------------------------------------------------------------------| 
|-7-7-7-7-7-7-7--7-7-7-7-7-7-7--7-7-7-7-7-7-7--7-7-7-7-7-7-7-------| 
|-5-5-5-5-5-5-5--5-5-5-5-5-5-5--5-5-5-5-5-5-5--5-5-5-5-5-5-5-------| 

Fig. 2   (Despacio)
|----------------------------------------------------------------------| 
|----------------------------------------------------------------------| 
|-----------------------------------7-7-7--7-7-7--7--7-7-7--7-7-7--7---| 
|-4-4-4--4-4-4--4--5-5-5--5-5-5--5--7-7-7--7-7-7--7--7-7-7--7-7-7--7---| 
|-5-5-5--5-5-5--5--5-5-5--5-5-5--5--5-5-5--5-5-5--5--5-5-5--5-5-5--5---| 
|-2-2-2--2-2-2--2--3-3-3--3-3-3--3-------------------------------------| 

|-------------------------------------------------------------------| 
|-------------------------------------------------------------------| 
|-----------------------------------7-7-7--7-7-7--7-----------------| 
|-4-4-4--4-4-4--4--5-5-5--5-5-5--5--7-7-7--7-7-7--7--9-9-9--7-7-7---| 
|-5-5-5--5-5-5--5--5-5-5--5-5-5--5--5-5-5--5-5-5--5--9-9-9--7-7-7---| 
|-2-2-2--2-2-2--2--3-3-3--3-3-3--3-------------------7-7-7--5-5-5---| 

Fig. 3   (Fuerte) 
|-----------------------------------| 
|-----------------------------------| 
|-----------------------------------| 
|-------------(x4)-------------(x4)-| 
|-2--2-4--4-5------4--4-5--5-7------| 
|-3--3-3--3-3------5--5-5--5-5------| 

Fig. 4 
|----------------------------------------------------------------| 
|----------------------------------------------------------------| 
|----------------------------------------------------------------| 
|----------------------------------------------------------------| 
|-5-5-5-5-5-5-5--5-5-5-5-5-5-5--5-5-5-5-5-5-5--5-5-5-5-5-5-5-----| 
|-2-2-2-2-2-2-2--2-2-2-2-2-2-2--3-3-3-3-3-3-3--3-3-3-3-3-3-3-----| 


Fig. 5 
|------------------------------| 
|------------------------------| 
|-7-7-7--7-7-7--7-7-7--7-7-7---| 
|-7-7-7--7-7-7--7-7-7--7-7-7---| 
|-5-5-5--5-5-5--5-5-5--5-5-5---| 
|-x-x-x--x-x-x--x-x-x--x-x-x---| 

Fig. 6 
|------------------------------------------------------------------------------------| 
|------------------------------------------------------------------------------------| 
|-7-7-7--7-7-7-----------6----7-7-7--7-7-7--14-14-14--11-11-11--12-12-12--12-12-12---| 
|-7-7-7--7-7-7----9----7-7-7--x-x-x--x-x-x---x--x--x---x--x--x---x--x--x---x--x--x---| 
|-5-5-5--5-5-5--9-9-9--7-7-7--5-5-5--5-5-5--12-12-12---9--9--9--10-10-10--10-10-10---| 
|---------------7-7-7--5-5-5---------------------------------------------------------| 

|------------------------| 
|------------------------| 
|-9--11--12--9--11--12---| 
|-x---x---x--x---x---x---| 
|-7---9--10--7---9--10---| 
|------------------------| 

Fig. 7 
|------------------------------------------------------------| 
|------------------------------------------------------------| 
|------------------------------------------------------------| 
|-7-7-7--7-7-7-----------------------------------------------| 
|-5-5-5--5-5-5--5-5-5--5-5-5--5-5-5--5-5-5--7-7-7--7-7-7-----| 
|-X-X-X--X-X-X--2-2-2--2-2-2--3-3-3--3-3-3--4-4-4--5-5-5-----| 

Fig. 8 
|-----------------------------------------------| 
|-----------------------------------------------| 
|-5----------------7-7--------------------------| 
|-5-------5---2----7-7----4-4-4--5-5-5--7-7-7---| 
|-3-------5---2----5-5----4-4-4--5-5-5--7-7-7---| 
|-3-------3---0-----------2-2-2--3-3-3--5-5-5---| 

Fig. 9 
|-----------------------------------------------------------------| 
|-----------------------------------------------------------------| 
|-7-7-7-7-7-7-7---7-7-7-7-7-7-7---7-7-7-7-7-7-7---7-7-7-7-7-7-7---| 
|-7-7-7-7-7-7-7---7-7-7-7-7-7-7---7-7-7-7-7-7-7---7-7-7-7-7-7-7---| 
|-5-5-5-5-5-5-5---5-5-5-5-5-5-5---5-5-5-5-5-5-5---5-5-5-5-5-5-5---| 
|-----------------------------------------------------------------| 

Fig. 10 
|-------------------------------| 
|-------------------------------| 
|-------------------------------| 
|-5-5-5--5-5-5---7-7-7--7-7-7---| 
|-5-5-5--5-5-5---7-7-7--7-7-7---| 
|-3-3-3--3-3-3---5-5-5--5-5-5---| 

Fig. 11 
|-----| 
|-----| 
|-7\--| 
|-7\--| 
|-5\--| 
|-----| 

ORDER: 
FIG. 1 
FIG. 1 
FIG. 2 
FIG. 3 
FIG. 3 
FIG. 4 
FIG. 5 
FIG. 4 
FIG. 6 
FIG. 7 
FIG. 7 
FIG. 7 
FIG. 8 
FIG. 9 
FIG. 7 
FIG. 7 
FIG. 8 
FIG. 4 
FIG. 5 
FIG. 4 
FIG. 6 
FIG. 10 
FIG. 5 
FIG. 11 

Creo que con las correcciones que hice suena mucho mejor,
sólo tengo dudas en el orden de la figuras asi que escuchen 
mucho el tema para obtener el orden correcto.
Envien dudas, correcciones, saludos o comentarios a 
Un saludo pa' mi broder Bastian que le encanta esta canción.





Comments


Popular Lagwagon tabs & chords
Owen Meaney 1 Bass Tabs
Weak Bass Tabs
Weak 1 Bass Tabs
Change Despair Chords
Love Story Chords
Choke 1 Tabs
Falling Apart Tabs
May 16 3 Tabs
Mr. Coffee Tabs
Violins Ukulele


Song lyrics



↑ Back to top | Tablatures and chords are parodies/interpretations of the original songs. You may use it for private study, scholarship, research or language learning purposes only
© 2014 AZChords.com Contact us | Privacy policy | DMCA | Add/correct tabs | Request tabs | Top 50 tabs