» » »

Lagwagon, Lazy Tabs (ver.1)

Artists:  A B C D E F G H I J K L M N O P Q R S T U V W X Y Z # 

Lazy Tabs (ver.1)

Lagwagon Tabs
 Rating:
4/5 (4 votes)
Lazy lessons Tabs too difficult? Try these video lessons and learn fast
                phat song and the title basically describes me!

intro:         verse:
e-|-----------|---------------------------------------|---------------------
B-|-----------|---------------------------------------|---------------------
G-|-----------|---------------------------------------|---------------------
D-|-------2-4-|-5--4-----7--5--4--7-8-9-9-9-9-7-7-7-7-|-5-------------------
A-|---2-5-----|-3--2--2--5--3--2--5-6-7-7-7-7-5-5-5-5-|-3-3-3-2~-2-3-3-5~---
E-|-3---------|-------0-------------------------------|----------0----------
                
e-|-----------|-------------------------------------------------------------
B-|-----------|-------------------------------------------------------------
G-|-----------|-------------------------------------------------------------
D-|-5-5-4-4-4-|-------------------------5-5-------------------------5-5-----
A-|-3-3-2-2-2-|-2-2-2-2-x-x-x-x-5-5-5-5-3-3-2-2-2-2-x-x-x-x-5-5-5-5-3-3-----
E-|-----------|-0-0-0-0-3-3-3-3-3-3-3-3-----0-0-0-0-3-3-3-3-3-3-3-3---------
                                      
e-|--------------------------------|--------------------------------|-------
B-|--------------------------------|--------------------------------|-------
G-|--------------------------------|--------------------------------|-------
D-|-------------------------5---5--|---7---5-5-4-4-9-7----------2-4-|-------
A-|-2-2-2-2-x-x-x-x-5-5-5-5-3---3--|-2-5-7-3-3-2-2-7-5-7----2-5-----|-------
E-|-0-0-0-0-3-3-3-3-3-3-3-3--------|-0---5-------------5--3---------|-------)
e-|------------------------------|
B-|------------------------------|
G-|------------------------------|
D-|---7---5-5-4-4--9-7---5-5-4-4-|
A-|-2-5-7-3-3-2-2--7-5-7-3-3-2-2-|
E-|-0---5--------------5---------|

e-|---------------------------|
B-|---------------------------|
G-|---------------------------|
D-|-8-7-5---------5-----7-5---|
A-|-------8-7-5-----7-5-----7-|
E-|-------------5-------------|

thats all the riffs.. i hope can make sense of it....
            
Submit corrections

comments powered by Disqus
↑ Back to top | Lagwagon Tabs for Lazy. Lyrics for acoustic guitar and electric guitar. Tablatures and chords are parodies/interpretations of the original songs. You may use it for private study, scholarship, research or language learning purposes only