» » »

Lagwagon, ...Hidden Track Tabs (ver.1)

Artists:  A B C D E F G H I J K L M N O P Q R S T U V W X Y Z # 

...Hidden Track Tabs (ver.1)

Lagwagon Tabs
Rating:
0/5 (0 votes)
...Hidden Track lessons Tabs too difficult? Try these video lessons and learn fast
                		   HIDDEN TRACK (Double Plaidinum) - Lagwagon


Intro:(listen to the CD for rhythym on this part)
E---------------------------------------
B---------------------------------------
G-----------5---5-----------3---5-------
D---3---3---5---5---7---7---3---5---3---
A---3---3---3---3---7---7---1---3---3---
E---1---1-----------5---5-----------1---
    F   F   C   C   A   A   Bb  C   F

Verse:
E---------------------------------------
B---------------------------------------
G---3-------3-------3---6--------5------
D---3---3---3---3---3---6---3----5------
A---1---3---1---3---1---4---3----3------
E-------1-------1-----------1-----------
    Bb  F   Bb  F   Bb  C#  F     C      

Chorus:
(Play this 3x)
E-------------------                         ---------------
B-------------------                         ---------------
G---3---5-------7---                         ---3---5-------
D---3---5---7---7---         (then)          ---3---5---3---
A---1---3---7---5---                         ---1---3---3---
E-----------5-------                         -----------1---
    Bb  C   A   D                               Bb  C   F

Solo: (h-hammer on)
E------------7--------------7-7-----------------------------
B--------6-8---6--------6-8---------------------------------
G------5--------------5-------------------------------------
D--5h7------------5h7---------------------------------------
A-----------------------------------------------------------
E-----------------------------------------------------------

Riff played during last chorus repeat:
E------------------------6-5-3-------------------6-5-3------
B-------6----6-5---6-5-4-------6-5---6-5---6-5-4-------6-5--
G-----5----5-----6-----------------5-----6-----------------5
D-5h7-------------------------------------------------------
A-----------------------------------------------------------
E-----------------------------------------------------------
            

comments powered by Disqus
↑ Back to top | Lagwagon Tabs for ...Hidden Track. Lyrics for acoustic guitar and electric guitar. Tablatures and chords are parodies/interpretations of the original songs. You may use it for private study, scholarship, research or language learning purposes only