>
 >
Gun In Your Hand

Gun In Your Hand Guitar Tabs

Lagwagon - Gun In Your Hand chords, tabs, tablatures, lyrics

Guitar lessons | Add/correct | Request | Top 50 tabs Artists:  A B C D E F G H I J K L M N O P Q R S T U V W X Y Z 0-9

Gun In Your Hand Guitar Tabs – Lagwagon

CD, Sheet music, Poster

Do you like Gun In Your Hand? Share with your friends now
Bass TabsBass Tabs v2Tabs
Intro (Both Guitars)
**Only the chords are shown, work out strumming yourself**
|------------------------------------------------------------|
|------------------------------------------------------------|
|------------------------------------------------------------|
|-4-2-0--7---------------------------------------------------|
|--------5--7--9---------------------------------------------|
|-----------5--7---------------------------------------------|

Verse (Both Guitars-**Only chord progression is shown**)

			"You might survive..."
|------------------|-----------------------------------------------------|
|------------------|-----------------------------------------------------|
|----7-----6-------|-------7--4------------------------------------------|
|-5--x--7--x--(x2)-|-5--7--7--4--4-2-0 (then back into the first part of-|
|-5--5--7--4-------|-5--7--5--2---------the verse)-----------------------|
|-3-----5----------|-3--5------------------------------------------------|

Guitar One ("A wealth of respect..."-**Only chord progression is shown**)
|----------------------------------|
|----------------------------------|
|----6--9-7--11--12--9-------------|
|-5--x--x-x---x---x--x---7---7---9-|
|-5--4--7-5---9--10--7---7---7---9-|
|-3----------------------5---5---7-|
			    p.m

Guitar Two ("A wealth of respect..."-**Only chord progression is shown**)
|---------------------------------|
|---------------------------------|
|---------------------------------|
|-5--7--9--12--14--10---7---7---9-|
|-5--7--9--12--14--10---7---7---9-|
|-3--5--7--10--12---8---5---5---7-|
			   p.m

THEN BACK INTO THE MAIN VERSE

Middle Section (Both Guitars)
|--------------------------------------------------------------------------
|--------------------------------------------------------------------------
|--------------------------------------------------------------------------
|-5-5----------7-7--------4--2-2--2-2-2---4-4--4-2-0------5-5----------7-7-
|-5-5--4-5-7---7-7--7-5-4----0-0--0-0-0---2-2---------4---5-5--4-5-7---7-7-
|-3-3----------5-5----------------------------------------3-3----------5-5-
       p.m	    p.m		                   p.m 	       p.m

|--------------------------------------------------------------------------
|--------------------------------------------------------------------------
|--------------------------------------------------------9-8-7-------------
|-------4--2-2--2-2-2---4-4--4-2-0-----5-5----------7-7--x-x-x---7-7-7-7-7-
|-7-5-4----0-0--0-0-0---2-2--------4---5-5--4-5-7---7-7--7-6-5---7-7-7-7-7-
|--------------------------------------3-3----------5-5----------5-5-5-5-5-
  p.m (work out all the rest yourself, it's easy)

|-----------------------------------------------------------------|
|-----------------------------------------------------------------|
|-----------------------------------------------------------------|
|-4-4--4-2-0----9-9-9-9-9-------------7-7-7-7-7-7-7-7-7-7-7-7-7-7-|
|-2-2--------4--7-7-7-7-7--3-3-3-3-3--7-7-7-7-7-7-7-7-7-7-7-7-7-7-|
|--------------------------3-3-3-3-3--5-5-5-5-5-5-5-5-5-5-5-5-5-5-|
				      p.m (work it out)

Bridge ("It only breaks you until..") **Only chord progression is shown**
Both Guitars
|---------------------|
|---------------------|
|---------------------|
|-7--4--5--7--7--5--7-|
|-5--4--5--7--5--5--7-|
|----2--3--5-----3--5-|

Next Part (With sampling and different timed drum beat)

Guitar One
|--------------------------------------------------------------------
|--------------------------------------------------------------------
|--------------------------------------------------------------------
|-7-7-7-7-7-7-7-7--9-9-9-9-9-9-9-9--7-7-7-7-7-7-7-7--5-5-5-5-5-5-5-5-
|-7-7-7-7-7-7-7-7--9-9-9-9-9-9-9-9--5-5-5-5-5-5-5-5--5-5-5-5-5-5-5-5-
|-5-5-5-5-5-5-5-5--7-7-7-7-7-7-7-7-------------------3-3-3-3-3-3-3-3-

|--------------------------------------------------------------------
|--------------------------------------------------------------------
|--------------------------------------------------------------------
|-----------------------------------7-7-7-7-7-7-7-7------------------
|-7-7-7-7-7-7-7-7--9-9-9-9-9-9-9-9--5-5-5-5-5-5-5-5--5-5-5-5-5-5-5-5-
|-5-5-5-5-5-5-5-5--7-7-7-7-7-7-7-7-------------------3-3-3-3-3-3-3-3-

|----------------------------------------------------------------------------
|----------------------------------------------------------------------------
|----------------------------------------------------------------------------
|----------------------------------------------------------------------------
|-7-7-7-7-7-7-7-7--9-9-9-9-9-9-9--12-12-12-12-12-12-12--14-14-14-14-14-14-14-
|-5-5-5-5-5-5-5-5--7-7-7-7-7-7-7--10-10-10-10-10-10-10--12-12-12-12-12-12-12-

|----------------------------------------------------------------------------
|----------------------------------------------------------------------------
|----------------------------------------------------------------------------
|----------------------------------------------------------------4-4-4-4-4-4-
|-9-9-9-9-9-9-9-9--7-7-7-7--7-7-7--7-7-7--7--9----2-2-2-2-2-2-2--2-2-2-2-2-2-
|-7-7-7-7-7-7-7-7--5-5-5-5--5-5-5--5-5-5--5--7----0-0-0-0-0-0-0--------------
					 p.m

|--------------------------------------------------------------|
|--------------------------------------------------------------|
|--------------------------------------------------------------|
|-4----------------------------------------------5-5-5-5-5-5-5-|
|-2--7-7-7-7--7-7-7--7-7-7--7--9--2-2-2-2-2-2-2--3-3-3-3-3-3-3-|
|----5-5-5-5--5-5-5--5-5-5--5--7--0-0-0-0-0-0-0----------------|
			   p.m			 |---P.M---|


Guitar Two
|--------------------------------------------------------------------
|--------------------------------------------------------------------
|--------------------------------------------------------------------
|-7-7-7-7-7-7-7-7--9-9-9-9-9-9-9-9--7-7-7-7-7-7-7-7--5-5-5-5-5-5-5-5-
|-7-7-7-7-7-7-7-7--9-9-9-9-9-9-9-9--5-5-5-5-5-5-5-5--5-5-5-5-5-5-5-5-
|-5-5-5-5-5-5-5-5--7-7-7-7-7-7-7-7-------------------3-3-3-3-3-3-3-3-

|--------------------------------------------------------------------
|--------------------------------------------------------------------
|--------------------------------------------------------------------
|-----------------------------------7-7-7-7-7-7-7-7------------------
|-7-7-7-7-7-7-7-7--9-9-9-9-9-9-9-9--5-5-5-5-5-5-5-5--5-5-5-5-5-5-5-5-
|-5-5-5-5-5-5-5-5--7-7-7-7-7-7-7-7-------------------3-3-3-3-3-3-3-3-

|--------------------------------------------------------------------------
|------------------7-7-7-7-7-7-7-7--10-10-10-10-10-10-10-10----------------
|------------------4-4-4-4-4-4-4-4---7--7--7--7--7--7--7--7----12-12-12-12-
|---------------------------------------------------------------x--x--x--x-
|-7-7-7-7-7-7-7-7----------------------------------------------10-10-10-10-
|-5-5-5-5-5-5-5-5----------------------------------------------------------

|--------------------------------------------------------------------------
|--------------------------------------------------------------------------
|-12-12-12-12--11-11-11-11-11-11-11-11--7-7-7-7--7-7-7--6-6-6--6--4--12-12-
|--x--x--x--x---x--x--x--x--x--x--x--x--x-x-x-x--x-x-x--x-x-x--x--x---x--x-
|-10-10-10-10---9--9--9--9--9--9--9--9--5-5-5-5--5-5-5--4-4-4--4--2--10-10-
|--------------------------------------------------------------------------

|------------------------------------------------------------------------
|------------------------------------------------------------------------
|-12-12-12-12-12-12-11-11-11-11-11-11-11-11--7-7-7-7--7-7-7--6-6-6--6--4-
|--x--x--x--x--x--x--x--x--x--x--x--x--x--x--x-x-x-x--x-x-x--x-x-x--x--x-
|-10-10-10-10-10-10--9--9--9--9--9--9--9--9--5-5-5-5--5-5-5--4-4-4--4--2-
|------------------------------------------------------------------------

|----------------------------------------|
|----------------------------------------|
|-12-12-12-12-12-12-12-12--9-9-9-9-9-9-9-|
|--x--x--x--x--x--x--x--x--x-x-x-x-x-x-x-|
|-10-10-10-10-10-10-10-10--7-7-7-7-7-7-7-|
|----------------------------------------|





Comments


Popular Lagwagon tabs & chords
Alison's Disease Bass Tabs
Brown Eyed Girl Bass Tabs
Stockin' The Neighbors 1 Bass Tabs
Violins Bass Tabs
After You My Friend Chords
Drive By Chords
Violins Chords
Bad Moon Rising Tabs
Brown Eyed Girl Tabs
Bury The Hatchet Tabs


Song lyrics



↑ Back to top | Tablatures and chords are parodies/interpretations of the original songs. You may use it for private study, scholarship, research or language learning purposes only
© 2014 AZChords.com Contact us | Privacy policy | DMCA | Add/correct tabs | Request tabs | Top 50 tabs