>
 >
Eat Your Words

Eat Your Words Guitar Tabs

Lagwagon - Eat Your Words chords, tabs, tablatures, lyrics

Guitar lessons | Add/correct | Request | Top 50 tabs Artists:  A B C D E F G H I J K L M N O P Q R S T U V W X Y Z 0-9

Eat Your Words Guitar Tabs – Lagwagon

CD, Sheet music, Poster

Do you like Eat Your Words? Share with your friends now
ChordsTabs
--------------------------------------------------------------------------
                         Eat Your Words-Lagwagon
--------------------------------------------------------------------------

Tuning:standard
Intro
played quietly:

     clean guitar
               Wait  for Us    become-con-
e|-------------------------------------|
B|---3----0----1-----3----1--------1--3|
G|-------------0-----0----0------------|
D|-------------------------------------|
A|---0----2----------------------------|
E|-------------------------------------|

    tent  in the back  of the  bus          guilty
e|------------------------------------------------|
B|--------1-------3-------1----1---0--0-----1-3---|
G|------2-------4-------2------0---0--2-----0-0---|
D|----3-------5-------3---------------------------|
A|------------------------------------------------|
E|------------------------------------------------|

      of the time you spent     serving  someone left to give you up  
   
e|-------------------------------3/5\3------------------------|
B|----------1--------------------3/5\3-------5-------------1--|
G|-------2---2---------4-------------------5---------4-----2--|
D|----3-------3---5----------------------5---------5-------3--|
A|-------------------------------------3---------5------------|
E|---------------------------------------------3--------------|

but you're not           laboring

e|---------------------------|
B|-----------3-----------1-3-|
G|-----------2---------------|
D|-----------3---------------|
A|---------------------------|
E|---------------------------|

the thought of something incomplete         no one 

e|------------------------------------------------|
B|--------1-------3-------1----1---0--0-----3-1---|
G|------2-------4-------2------0---0--2-----0-0---|
D|----3-------5-------3---------------------------|
A|------------------------------------------------|
E|------------------------------------------------|

      lives exception to this passing grief

e|-------------------------------3/5\3-|
B|----------1--------------------3/5\3-|
G|-------2---2---------4---------------|
D|----3-------3---5--------------------|
A|-------------------------------------|
E|-------------------------------------|


                                        Unstill-o in  your voice
e|--------------------------------------------------|
B|--------------------------------------------------|
G|--------------------------------------------------|
D|----------------------------------2-2-2-2-2-2-2-2-|
A|--3-3-3-3-3-3-3-3-2-2-2-2-2-2-2-2-0-0-0-0-0-0-0-0-|
E|--1-1-1-1-1-1-1-1-0-0-0-0-0-0-0-0-----------------|

    agrees              bleeding
e|-----------------------------------|
B|-----------------------------------|
G|-----------------------------------|
D|------------------------------5-5-5|
A|--2-2-2-2-2-2-3-3-3-3-3-3-3-3-5-5-5|
E|--0-0-0-0-0-0-1-1-1-1-1-1-1-1-3-3-3|


refrain:

                      1) Julie             You can't Lie to Me honest-
                      2) seconds           with a grain of hope  on two 
e|----------------------------------------------------------------|
B|-------------5------------3--5-6--5-3-5--3--5-------------------|
G|--------------------------5--5-5--5-5-5--5--5-------------------|
D|--5-5-5-5---------5-------3-----------------------3-------------|
A|--3-3-3-3-----------------3-----------------------3-------------|
E|--------------------------------------------------1-------------|

  1)-ly
  2) thirds
e|-------------------------------------|
B|-------------------------------------|
G|-5---5-5-9---9-----------------------|
D|-5---5-5-9---9-7--7-----5--5---5-5-5-|
A|-3---3-3-7---7-7--7-----5--5---5-5-5-|
E|---------------5--5-----3--3---3-3-3-|

                   1)  Julie               I  will  Eat Your Words  and pre-  
                   2)  Julie               You-will Eat Your Words     
e|----------------------------------------------------------------|
B|-------------5------------3--5-6--5-3-5--3--5-------------------|
G|--------------------------5--5-5--5-5-5--5--5-------------------|
D|--5-5-5-5---------5-------3-----------------------3-------------|
A|--3-3-3-3-----------------3-----------------------3-------------|
E|--------------------------------------------------1-------------|

 1)tend       to digest them
 
e|-3---------------------------------|
B|-5----------------5----------------|
G|-5----------------5-4--------------|
D|-5----------------5-5--------------|
A|-3----------------3-5--------------|
E|--------------------3--------------|let ring(first time continue to second verse)

 2)and  your Words and you will fast disa-
e|-3-------------------------------------|
B|-5-------------------------------------|
G|-5---------9-----9---7---5----4-----4--|
D|-5---------x-----x---x---x----5-----5--|
A|-3---------7-----7---5---3----5-----5--|
E|------------------------------3-----3--|


ppear
 guitar interlude:
guitar 1:
e|---------------------------------|
B|---------------------------------|
G|---------------------------------|
D|---------------------------------|
A|--4-4-4-4-4-4-4-4-2-2-2-2-2-2-2-2|
E|---------------------------------|

guitar 1:
e|---------------------------------|
B|---------------------------------|
G|---------------------------------|
D|---------------------------------|
A|--4-4-4-4-4-4-4-4-4-4-4-4-4-4-4-4|
E|---------------------------------|


guitar 2 enters here:
phrase 1:
guitar 1:
e|---------------------------------|
B|---------------------------------|
G|---------------------------------|
D|---------------------------------|
A|--3-3-3-3-3-3-3-3-2-2-2-2-2-2-2-3|
E|---------------------------------|x2
    
guitar 2:
e|---------------------------------|
B|--1---------------0-------------1|
G|--0---------------0--------------|
D|---------------------------------|
A|---------------------------------|
E|---------------------------------|x2

phrase 2:

guitar 1:
e|---------------------------------|
B|---------------------------------|
G|---------------------------------|
D|---------------------------------|
A|--3-3-3-3-3-3-3-3-2-2-2-2-2-2-2-3|
E|---------------------------------|

guitar 2:
e|---------------------------------|
B|--1---------------0-------------0|
G|--0---------------0-------------0|
D|---------------------------------|
A|---------------------------------|
E|---------------------------------|


phrase 3:
guitar 1:
e|---------------------------------|
B|---------------------------------|
G|---------------------------------|
D|---------------------------------|
A|--0-0-0-0-0-0-0-0-0-0-0-0-------2|
E|--------------------------5-3-5--|

guitar 2:
e|---------------------------------|
B|-(0)--------------1--------------|
G|-(0)--------------0--------------|
D|---------------------------------|
A|---------------------------------|
E|---------------------------------|


phrase 4:
guitar 1:
e|---------------------------------|
B|---------------------------------|
G|---------------------------------|
D|---------------------------------|
A|--3-3-3-3-3-3-3-3-2-2-2-2-2-2-2-3|
E|---------------------------------|

guitar 2:
e|---------------------------------|
B|--1-------0---1---0-------------1|
G|--0-------0---0---0-------------0|
D|---------------------------------|
A|---------------------------------|
E|---------------------------------|

phrase 5:
guitar 1:
e|---------------------------------|
B|---------------------------------|
G|---------------------------------|
D|---------------------------------|
A|--3-3-3-3-3-3-3-3-2-2-2-2-2-2-2-3|
E|---------------------------------|

guitar 2:
e|--------------------------------0|
B|--1---------------0---------0-1-1|
G|--0---------------0-------------2|
D|--------------------------------3|
A|---------------------------------|
E|---------------------------------|

e|--0-0-0-0-0-0|
B|--1-1-1-1-1-1|
G|--2-2-2-2-2-2|
D|--3-3-3-3-3-3|
A|-------------|w/ overdrive
E|-------------|go to ending


Verse 2:
            there's always someone you can bore

e|----------------------------------|
B|----------------------------------|
G|----------------------------------|
D|--3-3-3-3-3-3-3-3-5-5-5-5-5-5-5-5-|
A|--3-3-3-3-3-3-3-3-5-5-5-5-5-5-5-5-|
E|--1-1-1-1-1-1-1-1-3-3-3-3-3-3-3-3-|

e|------------------------------------|
B|------------------------------------|
G|------------------7-7-/9--9---------|
D|--7-7-7-7-7-7-7-7-x-x--x--x---------|
A|--7-7-7-7-7-7-7-7-5-5-/7--7---------|
E|--5-5-5-5-5-5-5-5-------------------|

           i always listen to ac-
e|----------------------------------|
B|----------------------------------|
G|----------------------------------|
D|--3-3-3-3-3-3-3-3-5-5-5-5-5-5-5-5-|
A|--3-3-3-3-3-3-3-3-5-5-5-5-5-5-5-5-|
E|--1-1-1-1-1-1-1-1-3-3-3-3-3-3-3-3-|

    cents             wasting
e|------------------------------------|
B|------------------------------------|
G|------------------7-7-\5--5---------|
D|--7-7-7-7-7-7-7-7-x-x--x--x---------|
A|--7-7-7-7-7-7-7-7-5-5-\3--3---------|
E|--5-5-5-5-5-5-5-5-------------------|


time while timing is wasting you and  
e|----------------------------------|
B|----------------------------------|
G|----------------------------------|
D|--3-3-3-3-3-3-3-3-5-5-5-5-5-5-5-5-|
A|--3-3-3-3-3-3-3-3-5-5-5-5-5-5-5-5-|
E|--1-1-1-1-1-1-1-1-3-3-3-3-3-3-3-3-|

            I never left i just shut down   
e|-----------------------------------|
B|-----------------------------------|
G|--5-5-5-5-5-5-5-5-4-4-4-4-4-4-4-4--|
D|--5-5-5-5-5-5-5-5-x-x-x-x-x-x-x-x--|
A|--3-3-3-3-3-3-3-3-2-2-2-2-2-2-2-2--|
E|-----------------------------------|

          Still i can
e|---------------------------|
B|---------------------------|
G|------------------7-7-/9--9|
D|--7-7-7-7-7-7-7-7-x-x--x--x|
A|--7-7-7-7-7-7-7-7-5-5-/7--7|
E|--5-5-5-5-5-5-5-5----------|


       hear it from your mouth...                              counting

e|-----------------------------------------------------------------|
B|-----------------------------------------------------------------|
G|-9-9-9-9-9-9-9-9--10-10-10-10-10-10-10-10-10-10-10-10-10---------|
D|-x-x-x-x-x-x-x-x--x--x--x--x--x--x--x--x--x--x--x--x--x----5-5-5-|
A|-7-7-7-7-7-7-7-7--8--8--8--8--8--8--8--8--8--8--8--8--8----5-5-5-|
E|-----------------------------------------------------------3-3-3-|to refrain


ending:
guitar 1:
e|----------------------------------|
B|----------------------------------|
G|----------------------------------|
D|--3-3-3-3-3-3-3-3-5-5-5-5-5-5-5-5-|
A|--3-3-3-3-3-3-3-3-5-5-5-5-5-5-5-5-|
E|--1-1-1-1-1-1-1-1-3-3-3-3-3-3-3-3-|

e|------------------------------------|
B|------------------------------------|
G|------------------7-7-/9--9---------|
D|--7-7-7-7-7-7-7-7-x-x--x--x---------|
A|--7-7-7-7-7-7-7-7-5-5-/7--7---------|
E|--5-5-5-5-5-5-5-5-------------------|

e|----------------------------------|
B|----------------------------------|
G|----------------------------------|
D|--3-3-3-3-3-3-3-3-5-5-5-5-5-5-5-5-|
A|--3-3-3-3-3-3-3-3-5-5-5-5-5-5-5-5-|
E|--1-1-1-1-1-1-1-1-3-3-3-3-3-3-3-3-|

e|------------------------------------|
B|------------------------------------|
G|------------------7-7-\5--5---------|
D|--7-7-7-7-7-7-7-7-x-x--x--x---------|
A|--7-7-7-7-7-7-7-7-5-5-\3--3---------|
E|--5-5-5-5-5-5-5-5-------------------|x2

then play this
guitar 1:
e|----------------------------------|
B|----------------------------------|
G|----------------------------------|
D|--3-3-3-3-3-3-3-3-5-5-5-5-5-5-5-5-|
A|--3-3-3-3-3-3-3-3-5-5-5-5-5-5-5-5-|
E|--1-1-1-1-1-1-1-1-3-3-3-3-3-3-3-3-|

guitar 2:
e|----------------------------------|
B|----------------------------------|
G|-9----------------7---------------|
D|-x----------------x---------------|
A|-7----------------5---------------|
E|----------------------------------|




guitar 1:
e|----------------------------------|
B|----------------------------------|
G|----------------------------------|
D|--7-7-7-7-7-7-7-7-7-7-7-7-7-7-7-7-|
A|--7-7-7-7-7-7-7-7-7-7-7-7-7-7-7-7-|
E|--5-5-5-5-5-5-5-5-5-5-5-5-5-5-5-5-|

guitar 2:           
e|----------------------------------|
B|----------------------------------|
G|-5----------------5--4----4--4---4|
D|-x----------------x--x----x--x---x|
A|-3----------------3--2----2--2---2|
E|----------------------------------|




then play this:
guitar 1:
e|----------------------------------|
B|----------------------------------|
G|----------------------------------|
D|--3-3-3-3-3-3-3-3-5-5-5-5-5-5-5-5-|
A|--3-3-3-3-3-3-3-3-5-5-5-5-5-5-5-5-|
E|--1-1-1-1-1-1-1-1-3-3-3-3-3-3-3-3-|

guitar 2:
e|----------------------------------|
B|----------------------------------|
G|-10-10-10-10-10-10-9----9--9--9--9|
D|-x--x--x--x--x--x--x----x--x--x--x|
A|-8--8--8--8--8--8--7----7--7--7--7|
E|----------------------------------|



guitar 1:
e|----------------------------------|
B|----------------------------------|
G|----------------------------------|
D|--7-7-7-7-7-7-7-7-7-7-7-7-7-7-7-7-|
A|--7-7-7-7-7-7-7-7-7-7-7-7-7-7-7-7-|
E|--5-5-5-5-5-5-5-5-5-5-5-5-5-5-5-5-|


guitar 2:

e|----------------------------------|
B|----------------------------------|
G|----------------------------------|
D|--7-----7-7-7-7-7-----7-7-7-7-7-7-|
A|--x-----x-x-x-x-x-----x-x-x-x-x-x-|
E|--5-----5-5-5-5-5-----5-5-5-5-5-5-|repeat and fade out
| /  slide up
| \  slide down
| h  hammer-on
| p  pull-off
| ~  vibrato
| +  harmonic
| x  Mute note
=========================================================================





Comments


Popular Lagwagon tabs & chords
A Feedbag Of Truck Stop Poetry Bass Tabs
After You My Friend Bass Tabs
Alison's Disease Bass Tabs
Bad Moon Rising Bass Tabs
Raise A Family Bass Tabs
Stockin' The Neighbors 1 Bass Tabs
Confession 1 Tabs
Sad Astronaut 1 Tabs
Today 1 Tabs
E Dagger Ukulele


Song lyrics



↑ Back to top | Tablatures and chords are parodies/interpretations of the original songs. You may use it for private study, scholarship, research or language learning purposes only
© 2014 AZChords.com Contact us | Privacy policy | DMCA | Add/correct tabs | Request tabs | Top 50 tabs