» » »

Lagwagon, Bye For Now Tabs (ver.1)

Artists:  A B C D E F G H I J K L M N O P Q R S T U V W X Y Z # 

Bye For Now Tabs (ver.1)

Lagwagon Tabs
Rating:
4/5 (1 vote)
Hard to play? Try these video lessons and learn fast.
                Verse/Intro: the first half of this is the also the verse as well as part of the intro:
e-|--------------------------------------------------------------------------|
B-|--------------------------------------------------------------------------|
G-|-9-9-9-9-9-9-9-9--------------------------------------------------9-9-9-9-|
D-|-9-9-9-9-9-9-9-9-9-9-9-9-9-9-9-9-7-7-7-7-7-7-7-7-7-7-7-7-7-7-7-7--9-9-9-9-|
A-|-7-7-7-7-7-7-7-7-9-9-9-9-9-9-9-9-7-7-7-7-7-7-7-7-7-7-7-7-7-7-7-7--7-7-7-7-|
E-|-----------------7-7-7-7-7-7-7-7-5-5-5-5-5-5-5-5-5-5-5-5-5-5-5-5----------|

e-|-----------------------------------------------------------------|
B-|-----------------------------------------------------------------|
G-|-9-9-9-9-11-11-11-11-11-11-11-11---------------------------------|
D-|-9-9-9-9-xx-xx-xx-xx-xx-xx-xx-xx-7-7-7-7-7-7-7-7-7-7-7-7-7-7-7-7-|
A-|-7-7-7-7--9--9--9--9--9--9--9--9-7-7-7-7-7-7-7-7-7-7-7-7-7-7-7-7-|
E-|---------------------------------5-5-5-5-5-5-5-5-5-5-5-5-5-5-5-5-|

Chorus:
e-|-------------------------------------------------------------------------|
B-|-------------------------------------------------------------------------|
G-|-------------------------------------------------------------------------|
D-|---9---9-----------------------------------------------------------------|
A-|-2-7-2-7-6-6-6-6-6-6-6-6-6-6-6-6-6-6-6-6-7-x-x-x-7-x-x-x-7-x-x-x-7-x-x-x-|
E-|-0---0---4-4-4-4-4-4-4-4-4-4-4-4-4-4-4-4-5-x-x-x-5-x-x-x-5-x-x-x-5-x-x-x-|

Solo:
e-|----------------------------------------------|
B-|----------------------------------------------|
G-|-13-13-11-9-13-11~~-13-11h13-13-16-14-13------|
D-|-13-13-11-------------------------------------|
A-|----------------------------------------------|
E-|----------------------------------------------|

e-|--------------------------------------------|
B-|--------------------------------------------|
G-|-9-11-9-11-13-11-14-13-11-9-11-9-16-14-13-9-|
D-|-x-xx-x-xx-xx-xx-xx-xx-xx-x-xx-x-xx-xx-xx-x-|
A-|-7--9-7--9-11--9-12-11--9-7--9-7-14-12-11-7-|
E-|--------------------------------------------|
            

comments powered by Disqus
↑ Back to top | Lagwagon Tabs for Bye For Now. Lyrics for acoustic guitar and electric guitar. Tablatures and chords are parodies/interpretations of the original songs. You may use it for private study, scholarship, research or language learning purposes only