>
 >
Bombs Away

Bombs Away Guitar Tabs

Lagwagon - Bombs Away chords, tabs, tablatures, lyrics

Guitar lessons | Add/correct | Request | Top 50 tabs Artists:  A B C D E F G H I J K L M N O P Q R S T U V W X Y Z 0-9

Bombs Away Guitar Tabs – Lagwagon

CD, Sheet music, Poster

Do you like Bombs Away? Share with your friends now
Bass TabsBass Tabs v2Tabs
This is a awsome song!
i'm sorry cause his tab may be a little confusing!!

"you'll never be forgotten"
e|-------------------------------------------------------------|
b|-------------------------------------------------------------|
g|---77777777777-44444444444-----------------------------------|
d|---77777777777-44444444444-555557777-------------------------|
a|---55555555555-22222222222-555557777-------------------------|
e|---------------------------333335555-------------------------|

"but i wanna know"
e|-------------------------------------------------------------|
b|-------------------------------------------------------------|
g|---77777777777-4444444444-----------77767--------------------|
d|---77777777777-4444444444-555557777-xxxxx--------------------|
a|---55555555555-2222222222-555557777-55545--------------------|
e|--------------------------333335555--------------------------|
                            .........
"this is the last time"
e|-------------------------------------------------------------|
b|-------------------------------------------------------------|
g|---7777-9999-----------7777-99999----------11-9--------------|
d|---7777-9999-5555-7777-7777-99999-5555-777-x--x--------------|
a|---5555-7777-5555-7777-5555-77777-5555-777-9--7--------------|
e|-------------3333-5555------------3333-555-------------------|

"go pick up the pieces"
e|-------------------------------------------------------------|
b|-------------------------------------------------------------|
g|---7777-4444-7777-6666-77-66-44------------------------------|
d|---7777-4444-7777-6666-77-66-44-77-555555-777777-------------|
a|---5555-2222-5555-4444-55-44-22-77-555555-777777-------------|
e|--------------------------------55-333333-555555-------------|
                                      .....  .....
(breakdown)
e|--------------------------------------------------------------------|
b|--------------------------------------7-----------------------------|
g|-7-6-4---------77---7---9-7-----7---9---------7---9-7-------7---6-4-|
d|-7-6-4-7-5-4-2-77-7---7-----77-7---7-----55-7---7------77-7---7-----|
a|-5-4-2-7-5-4-2-55-----------77-----------55------------77-----------|
e|-------5-3-2-0--------------55-----------33------------55-----------|

"bombs await..."
e|-------------------------------------------------------------|
b|-------------------------------------------------------------|
g|---7~--------------------------------------------------------|
d|---7~--7~--5~--7~--------------------------------------------|
a|---5~--7~--5~--7~--------------------------------------------|
e|-------5~--3~--5~--------------------------------------------|

"bombs away..."
e|-------------------------------------------------------------|
b|-------------------------------------------------------------|
g|---77777777--------------------------------------------------|
d|---77777777-77777777-55555555-77777777-----------------------|
a|---55555555-77777777-55555555-77777777-----------------------|
e|------------55555555-33333333-55555555-----------------------|

bridge
guitar 1(repeat this a lot)     (but sometimes you do this)
e|--------------------------    --------------------------|
b|--------------------------    --------------------------|
g|--77777777777777777777777-    -7777-1111111-9999-7777---|
d|--xxxxxxxxxxxxxxxxxxxxxxx-    -xxxx-x-x-x-x-xxxx-xxxx---|
a|--55555555555555555555555-    -5555-9-9-9-9-7777-5555---|
e|--------------------------    --------------------------|

guitar 2(repeat this all bridge)
e|-------------------------------------------------------------|
b|-------------------------------------------------------------|
g|---777777777-77--444444444-44--------------------------------|
d|---777777777-77--444444444-44--555557777---------------------|
a|---555555555-55--222222222-22--555557777---------------------|
e|-------------------------------333335555---------------------|

"you carry the burden"
e|-------------------------------------------------------------|
b|-------------------------------------------------------------|
g|---77777777777-44444444444-----------------------------------|
d|---77777777777-44444444444-555557777-------------------------|
a|---55555555555-22222222222-555557777-------------------------|
e|---------------------------333335555-------------------------|

"the feeling incomplete"
e|-------------------------------------------------------------|
b|-------------------------------------------------------------|
g|---77777777777-4444444444-----------77767--------------------|
d|---77777777777-4444444444-555557777-xxxxx--------------------|
a|---55555555555-2222222222-555557777-55545--------------------|
e|--------------------------333335555--------------------------|
                            .........
"this is the last time"
e|-------------------------------------------------------------|
b|-------------------------------------------------------------|
g|---7777-9999-----------7777-99999----------11-9--------------|
d|---7777-9999-5555-7777-7777-99999-5555-777-x--x--------------|
a|---5555-7777-5555-7777-5555-77777-5555-777-9--7--------------|
e|-------------3333-5555------------3333-555-------------------|

"go pick up the pieces"
e|-------------------------------------------------------------|
b|-------------------------------------------------------------|
g|---7777-4444-7777-6666-77-66-44------------------------------|
d|---7777-4444-7777-6666-77-66-44-77-555555-777777-------------|
a|---5555-2222-5555-4444-55-44-22-77-555555-777777-------------|
e|--------------------------------55-333333-555555-------------|
                                     .....  ......
(breakdown 2)
e|-------------------------------------------------------------|
b|-------------------------------------------------------------|
g|---7-6-4-----------------------------------------------------|
d|---7-6-4-7-5~-4~-2~------------------------------------------|
a|---5-4-2-7-5~-4~-2~------------------------------------------|
e|---------5-3~-2~-0~------------------------------------------|

"bombs await..."
e|-------------------------------------------------------------|
b|-------------------------------------------------------------|
g|---7~--------------------------------------------------------|
d|---7~--7~--5~--7~--------------------------------------------|
a|---5~--7~--5~--7~--------------------------------------------|
e|-------5~--3~--5~--------------------------------------------|

"bombs away..."
e|-------------------------------------------------------------|
b|-------------------------------------------------------------|
g|---77777777--------------------------------------------------|
d|---77777777-77777777-55555555-77777777-----------------------|
a|---55555555-77777777-55555555-77777777-----------------------|
e|------------55555555-33333333-55555555-----------------------|

(outro)
e|-------------------------------------------------------------|
b|-------------------------------------------------------------|
g|---777777777-444444444-----------------7~--------------------|
d|---777777777-444444444----5-------7----7~--------------------|
a|---555555555-222222222--5---5---7---7--5~--------------------|
e|-----------------------3------5------------------------------|





Comments


Popular Lagwagon tabs & chords
Name Dropping 1 Bass Tabs
No One Like You Bass Tabs
Razor Burn Bass Tabs
Bad Scene Chords
Black Eye Tabs
Losing Everyone Tabs
May 16 1 Tabs
Over The Hill Tabs
Today 1 Tabs
E Dagger Ukulele


Song lyrics



↑ Back to top | Tablatures and chords are parodies/interpretations of the original songs. You may use it for private study, scholarship, research or language learning purposes only
© 2014 AZChords.com Contact us | Privacy policy | DMCA | Add/correct tabs | Request tabs | Top 50 tabs