>
 >
Just A Kiss

Just A Kiss Guitar Tabs

Lady Antebellum - Just A Kiss chords, tabs, tablatures, lyrics

Guitar lessons | Add/correct | Request | Top 50 tabs Artists:  A B C D E F G H I J K L M N O P Q R S T U V W X Y Z 0-9

Just A Kiss Guitar Tabs – Lady Antebellum

CD, Sheet music, Poster

Do you like Just A Kiss? Share with your friends now
ChordsChords v2Chords v3Chords v4Chords v5Chords v6Chords v7Chords v8Chords v9TabsUkulele
(capo 1st fret)


 Intro
  Q  Q  Q  E Q  E Q E E E E Q  Q  Q  E Q  E Q  E E E E
|-0--0--0--0-0--0-0-0-0-0-0-0--0--0--0-0--0-0--0-0-0-0----|
|-1--1--1--1-1--1-1-1-1-1-1-1--1--1--1-1--1-1--1-1-1-1----|
|-2--2--2--2-2--2-2-2-2-2-2-0--0--0--0-0--0-0--0-0-0-0----|
|-2--2--2--2-2--2-2-2-2-2-2-2--2--2--2-2--2-2--2-2-2-2----|
|-0--0--0--0-0--0-0-0-0-0-0-3--3--3--3-3--3-3--3-3-3-3----|
|---------------------------------------------------------|


  Q  Q  Q  E Q  E Q E E E E Q  Q  Q  E Q  E Q  E Q.
|-0--0--0--0-0--0-0-0-0-0-0-0--0--0--0-0--0-0--0-------|
|-1--1--1--1-1--1-1-1-1-1-1-1--1--1--1-1--1-1--1-------|
|-2--2--2--2-2--2-2-2-2-2-2-0--0--0--0-0--0-0--0-------|
|-2--2--2--2-2--2-2-2-2-2-2-2--2--2--2-2--2-2--2-------|
|-0--0--0--0-0--0-0-0-0-0-0-3--3--3--3-3--3-3--3-------|
|------------------------------------------------------|


 Verse
  Q  Q  Q  E Q  E Q E E E E Q  Q  Q  E Q  E Q  E E E E
|-0--0--0--0-0--0-0-0-0-0-0-0--0--0--0-0--0-0--0-0-0-0----|
|-1--1--1--1-1--1-1-1-1-1-1-1--1--1--1-1--1-1--1-1-1-1----|
|-2--2--2--2-2--2-2-2-2-2-2-0--0--0--0-0--0-0--0-0-0-0----|
|-2--2--2--2-2--2-2-2-2-2-2-2--2--2--2-2--2-2--2-2-2-2----|
|-0--0--0--0-0--0-0-0-0-0-0-3--3--3--3-3--3-3--3-3-3-3----|
|---------------------------------------------------------|


  Q  Q  Q  E Q  E Q E E E E Q  Q  Q  E Q  E Q  E E E E
|-0--0--0--0-0--0-0-0-0-0-0-0--0--0--0-0--0-0--0-0-0-0----|
|-1--1--1--1-1--1-1-1-1-1-1-1--1--1--1-1--1-1--1-1-1-1----|
|-2--2--2--2-2--2-2-2-2-2-2-0--0--0--0-0--0-0--0-0-0-0----|
|-2--2--2--2-2--2-2-2-2-2-2-2--2--2--2-2--2-2--2-2-2-2----|
|-0--0--0--0-0--0-0-0-0-0-0-3--3--3--3-3--3-3--3-3-3-3----|
|---------------------------------------------------------|


  Q  Q  Q  E Q  E Q E E E E Q  Q  Q  E Q  E Q  E E E E
|-0--0--0--0-0--0-0-0-0-0-0-3--3--3--3-3--3-3--3-3-3-3----|
|-1--1--1--1-1--1-1-1-1-1-1-3--3--3--3-3--3-3--3-3-3-3----|
|-2--2--2--2-2--2-2-2-2-2-2-0--0--0--0-0--0-0--0-0-0-0----|
|-2--2--2--2-2--2-2-2-2-2-2-0--0--0--0-0--0-0--0-0-0-0----|
|-0--0--0--0-0--0-0-0-0-0-0-2--2--2--2-2--2-2--2-2-2-2----|
|---------------------------3--3--3--3-3--3-3--3-3-3-3----|


 Verse
  Q  Q  Q  E Q  E Q E E E E Q  Q  Q  E Q  E Q  E E E E
|-0--0--0--0-0--0-0-0-0-0-0-0--0--0--0-0--0-0--0-0-0-0----|
|-1--1--1--1-1--1-1-1-1-1-1-1--1--1--1-1--1-1--1-1-1-1----|
|-2--2--2--2-2--2-2-2-2-2-2-0--0--0--0-0--0-0--0-0-0-0----|
|-2--2--2--2-2--2-2-2-2-2-2-2--2--2--2-2--2-2--2-2-2-2----|
|-0--0--0--0-0--0-0-0-0-0-0-3--3--3--3-3--3-3--3-3-3-3----|
|---------------------------------------------------------|


  Q  Q  Q  E Q  E Q E E E E Q  Q  Q  E Q  E Q  E E E E
|-0--0--0--0-0--0-0-0-0-0-0-0--0--0--0-0--0-0--0-0-0-0----|
|-1--1--1--1-1--1-1-1-1-1-1-1--1--1--1-1--1-1--1-1-1-1----|
|-2--2--2--2-2--2-2-2-2-2-2-0--0--0--0-0--0-0--0-0-0-0----|
|-2--2--2--2-2--2-2-2-2-2-2-2--2--2--2-2--2-2--2-2-2-2----|
|-0--0--0--0-0--0-0-0-0-0-0-3--3--3--3-3--3-3--3-3-3-3----|
|---------------------------------------------------------|


  Q  Q  Q  E Q  E Q E E E E Q  Q  Q  E Q  E Q  E Q.
|-0--0--0--0-0--0-0-0-0-0-0-3--3--3--3-3--3-3--3-------|
|-1--1--1--1-1--1-1-1-1-1-1-3--3--3--3-3--3-3--3-------|
|-2--2--2--2-2--2-2-2-2-2-2-0--0--0--0-0--0-0--0-------|
|-2--2--2--2-2--2-2-2-2-2-2-0--0--0--0-0--0-0--0-------|
|-0--0--0--0-0--0-0-0-0-0-0-2--2--2--2-2--2-2--2-------|
|---------------------------3--3--3--3-3--3-3--3-------|


 Chorus
  Q  E E Q  E E Q  E E Q  Q  Q  E E Q  E E Q  E E Q  Q
|-0--0-0-0--0-0-0--0-0-0--0--0--0-0-0--0-0-0--0-0-3--3----|
|-1--1-1-1--1-1-1--1-1-1--1--1--1-1-1--1-1-1--1-1-3--3----|
|-2--2-2-2--2-2-2--2-2-2--2--0--0-0-0--0-0-0--0-0-0--0----|
|-2--2-2-2--2-2-2--2-2-3--3--2--2-2-2--2-2-2--2-2-0--0----|
|-0--0-0-0--0-0-0--0-0-------3--3-3-3--3-3-3--3-3-2--2----|
|-------------------------------------------------3--3----|


  Q  Q  E E E E Q  Q  Q  Q  Q  Q  E E E E Q  Q  Q  Q
|-0--0--0-0-0-0-0--0--0--0--0--0--0-0-0-0-0--0--3--3----|
|-1--1--1-1-1-1-1--1--1--1--1--1--1-1-1-1-1--1--3--3----|
|-2--2--2-2-2-2-2--2--2--2--0--0--0-0-0-0-0--0--0--0----|
|-2--2--2-2-2-2-2--2--3--3--2--2--2-2-2-2-2--2--0--0----|
|-0--0--0-0-0-0-0--0--------3--3--3-3-3-3-3--3--2--2----|
|-----------------------------------------------3--3----|


  Q  E E Q  E E Q  E E Q  Q  Q  E E Q  E E Q  E E Q  Q
|-0--0-0-0--0-0-0--0-0-0--0--0--0-0-0--0-0-0--0-0-3--3----|
|-1--1-1-1--1-1-1--1-1-1--1--1--1-1-1--1-1-1--1-1-3--3----|
|-2--2-2-2--2-2-2--2-2-2--2--0--0-0-0--0-0-0--0-0-0--0----|
|-2--2-2-2--2-2-2--2-2-3--3--2--2-2-2--2-2-2--2-2-0--0----|
|-0--0-0-0--0-0-0--0-0-------3--3-3-3--3-3-3--3-3-2--2----|
|-------------------------------------------------3--3----|


  Q  Q  Q  E Q  E Q  E E E E Q  Q  Q  E E W
|-0--0--0--0-0--0-0--0-0-0-0-3--3--3--3-3-3----|
|-1--1--1--1-1--1-1--1-1-1-1-3--3--3--3-3-3----|
|-2--2--2--2-2--2-2--2-2-2-2-0--0--0--0-0-0----|
|-3--3--3--3-3--3-3--3-3-3-3-0--0--0--0-0-0----|
|----------------------------2--2--2--2-2-2----|
|----------------------------3--3--3--3-3-3----|


  Q  Q  Q  E Q  E Q E E E E Q  Q  Q  E Q  E Q  E Q.
|-0--0--0--0-0--0-0-0-0-0-0-0--0--0--0-0--0-0--0-------|
|-1--1--1--1-1--1-1-1-1-1-1-1--1--1--1-1--1-1--1-------|
|-2--2--2--2-2--2-2-2-2-2-2-0--0--0--0-0--0-0--0-------|
|-2--2--2--2-2--2-2-2-2-2-2-2--2--2--2-2--2-2--2-------|
|-0--0--0--0-0--0-0-0-0-0-0-3--3--3--3-3--3-3--3-------|
|------------------------------------------------------|


 Verse
  Q  Q  Q  E Q  E Q E E E E Q  Q  Q  E Q  E Q  E E E E
|-0--0--0--0-0--0-0-0-0-0-0-0--0--0--0-0--0-0--0-0-0-0----|
|-1--1--1--1-1--1-1-1-1-1-1-1--1--1--1-1--1-1--1-1-1-1----|
|-2--2--2--2-2--2-2-2-2-2-2-0--0--0--0-0--0-0--0-0-0-0----|
|-2--2--2--2-2--2-2-2-2-2-2-2--2--2--2-2--2-2--2-2-2-2----|
|-0--0--0--0-0--0-0-0-0-0-0-3--3--3--3-3--3-3--3-3-3-3----|
|---------------------------------------------------------|


  Q  Q  Q  E Q  E Q E E E E Q  Q  Q  E Q  E Q  E E E E
|-0--0--0--0-0--0-0-0-0-0-0-0--0--0--0-0--0-0--0-0-0-0----|
|-1--1--1--1-1--1-1-1-1-1-1-1--1--1--1-1--1-1--1-1-1-1----|
|-2--2--2--2-2--2-2-2-2-2-2-0--0--0--0-0--0-0--0-0-0-0----|
|-2--2--2--2-2--2-2-2-2-2-2-2--2--2--2-2--2-2--2-2-2-2----|
|-0--0--0--0-0--0-0-0-0-0-0-3--3--3--3-3--3-3--3-3-3-3----|
|---------------------------------------------------------|


  Q  Q  Q  E Q  E Q E E E E Q  Q  Q  E Q  E Q  E E E E
|-0--0--0--0-0--0-0-0-0-0-0-3--3--3--3-3--3-3--3-3-3-3----|
|-1--1--1--1-1--1-1-1-1-1-1-3--3--3--3-3--3-3--3-3-3-3----|
|-2--2--2--2-2--2-2-2-2-2-2-0--0--0--0-0--0-0--0-0-0-0----|
|-2--2--2--2-2--2-2-2-2-2-2-0--0--0--0-0--0-0--0-0-0-0----|
|-0--0--0--0-0--0-0-0-0-0-0-2--2--2--2-2--2-2--2-2-2-2----|
|---------------------------3--3--3--3-3--3-3--3-3-3-3----|


 Chorus
  Q  E E Q  E E Q  E E Q  Q  Q  E E Q  E E Q  E E Q  Q
|-0--0-0-0--0-0-0--0-0-0--0--0--0-0-0--0-0-0--0-0-3--3----|
|-1--1-1-1--1-1-1--1-1-1--1--1--1-1-1--1-1-1--1-1-3--3----|
|-2--2-2-2--2-2-2--2-2-2--2--0--0-0-0--0-0-0--0-0-0--0----|
|-2--2-2-2--2-2-2--2-2-3--3--2--2-2-2--2-2-2--2-2-0--0----|
|-0--0-0-0--0-0-0--0-0-------3--3-3-3--3-3-3--3-3-2--2----|
|-------------------------------------------------3--3----|


  Q  Q  E E E E Q  Q  Q  Q  Q  Q  E E E E Q  Q  Q  Q
|-0--0--0-0-0-0-0--0--0--0--0--0--0-0-0-0-0--0--3--3----|
|-1--1--1-1-1-1-1--1--1--1--1--1--1-1-1-1-1--1--3--3----|
|-2--2--2-2-2-2-2--2--2--2--0--0--0-0-0-0-0--0--0--0----|
|-2--2--2-2-2-2-2--2--3--3--2--2--2-2-2-2-2--2--0--0----|
|-0--0--0-0-0-0-0--0--------3--3--3-3-3-3-3--3--2--2----|
|-----------------------------------------------3--3----|


  Q  E E Q  E E Q  E E Q  Q  Q  E E Q  E E Q  E E Q  Q
|-0--0-0-0--0-0-0--0-0-0--0--0--0-0-0--0-0-0--0-0-3--3----|
|-1--1-1-1--1-1-1--1-1-1--1--1--1-1-1--1-1-1--1-1-3--3----|
|-2--2-2-2--2-2-2--2-2-2--2--0--0-0-0--0-0-0--0-0-0--0----|
|-2--2-2-2--2-2-2--2-2-3--3--2--2-2-2--2-2-2--2-2-0--0----|
|-0--0-0-0--0-0-0--0-0-------3--3-3-3--3-3-3--3-3-2--2----|
|-------------------------------------------------3--3----|


  Q  Q  Q  E Q  E Q  E E E E Q  Q  Q  E Q E Q  E E E E
|-0--0--0--0-0--0-0--0-0-0-0-3--3--3--3-3-3-3--3-3-3-3----|
|-1--1--1--1-1--1-1--1-1-1-1-3--3--3--3-3-3-3--3-3-3-3----|
|-2--2--2--2-2--2-2--2-2-2-2-0--0--0--0-0-0-0--0-0-0-0----|
|-3--3--3--3-3--3-3--3-3-3-3-0--0--0--0-0-0-0--0-0-0-0----|
|----------------------------2--2--2--2-2-2-2--2-2-2-2----|
|----------------------------3--3--3--3-3-3-3--3-3-3-3----|


  Q  Q  Q  E Q  E Q  E E E E Q  Q  Q  E Q  E H.
|-0--0--0--0-0--0-0--0-0-0-0-0--0--0--0-0--3-3-----|
|-1--1--1--1-1--1-1--1-1-1-1-1--1--1--1-1--3-3-----|
|-2--2--2--2-2--2-2--2-2-2-2-0--0--0--0-0--0-0-----|
|-2--2--2--2-2--3-3--3-3-3-3-2--2--2--2-2--0-0-----|
|-0--0--0--0-0---------------3--3--3--3-3--2-2-----|
|------------------------------------------3-3-----|


 Chorus
  W        W        W        W
|-0--------0--------0--------3----|
|-1--------1--------1--------3----|
|-2--------2--------0--------0----|
|-2--------3--------2--------0----|
|-0-----------------3--------2----|
|----------------------------3----|


  W        W        Q  Q  E E E E E E Q  E E E E
|-0--------0--------0--0--0-0-0-0-0-3-3--3-3-3-3----|
|-1--------1--------1--1--1-1-1-1-1-3-3--3-3-3-3----|
|-2--------2--------0--0--0-0-0-0-0-0-0--0-0-0-0----|
|-2--------3--------2--2--2-2-2-2-2-0-0--0-0-0-0----|
|-0-----------------3--3--3-3-3-3-3-2-2--2-2-2-2----|
|-----------------------------------3-3--3-3-3-3----|


  Q  Q  Q  E Q  E Q  E E E E Q  Q  Q  E Q  E Q  E E E E
|-0--0--0--0-0--0-0--0-0-0-0-0--0--0--0-0--3-3--3-3-3-3----|
|-1--1--1--1-1--1-1--1-1-1-1-1--1--1--1-1--3-3--3-3-3-3----|
|-2--2--2--2-2--2-2--2-2-2-2-0--0--0--0-0--0-0--0-0-0-0----|
|-2--2--2--2-2--3-3--3-3-3-3-2--2--2--2-2--0-0--0-0-0-0----|
|-0--0--0--0-0---------------3--3--3--3-3--2-2--2-2-2-2----|
|------------------------------------------3-3--3-3-3-3----|


  Q  Q  Q  E Q  E Q  E E E E Q  Q  Q  E Q E Q  E E E E
|-0--0--0--0-0--0-0--0-0-0-0-3--3--3--3-3-3-3--3-3-3-3----|
|-1--1--1--1-1--1-1--1-1-1-1-3--3--3--3-3-3-3--3-3-3-3----|
|-2--2--2--2-2--2-2--2-2-2-2-0--0--0--0-0-0-0--0-0-0-0----|
|-3--3--3--3-3--3-3--3-3-3-3-0--0--0--0-0-0-0--0-0-0-0----|
|----------------------------2--2--2--2-2-2-2--2-2-2-2----|
|----------------------------3--3--3--3-3-3-3--3-3-3-3----|


  Q  Q  Q  E Q  E Q  E E E E Q  Q  Q  E Q  E Q  E E E E
|-0--0--0--0-0--0-0--0-0-0-0-0--0--0--0-0--3-3--3-3-3-3----|
|-1--1--1--1-1--1-1--1-1-1-1-1--1--1--1-1--3-3--3-3-3-3----|
|-2--2--2--2-2--2-2--2-2-2-2-0--0--0--0-0--0-0--0-0-0-0----|
|-2--2--2--2-2--3-3--3-3-3-3-2--2--2--2-2--0-0--0-0-0-0----|
|-0--0--0--0-0---------------3--3--3--3-3--2-2--2-2-2-2----|
|------------------------------------------3-3--3-3-3-3----|


  Q  Q  Q  E Q  E Q  E E E E Q  Q  Q  E Q  E H.
|-0--0--0--0-0--0-0--0-0-0-0-0--0--0--0-0--3-3-----|
|-1--1--1--1-1--1-1--1-1-1-1-1--1--1--1-1--3-3-----|
|-2--2--2--2-2--2-2--2-2-2-2-0--0--0--0-0--0-0-----|
|-2--2--2--2-2--3-3--3-3-3-3-2--2--2--2-2--0-0-----|
|-0--0--0--0-0---------------3--3--3--3-3--2-2-----|
|------------------------------------------3-3-----|


  W
|-0----|
|-1----|
|-2----|
|-2----|
|-0----|
|------|





Comments


Popular Lady Antebellum tabs & chords
A Woman Scorned Chords
I'm Just Lookin' For A Good Time (100% Correct) Chords
Looking For A Good Time 2 Chords
Love Don't Live Here 2 Chords
Love Ive Found In You Chords
Love This Pain Chords
Loves Lookin Good On You 1 Chords
Perfect Day Intro Tabs
Downtown Ukulele
Singing Me Home Ukulele


Song lyrics



↑ Back to top | Tablatures and chords are parodies/interpretations of the original songs. You may use it for private study, scholarship, research or language learning purposes only
© 2014 AZChords.com Contact us | Privacy policy | DMCA | Add/correct tabs | Request tabs | Top 50 tabs