» » »

Lady Antebellum, American Honey Tabs (ver.2)

Artists:  A B C D E F G H I J K L M N O P Q R S T U V W X Y Z # 

American Honey Tabs (ver.2)

Lady Antebellum Tabs
 Rating:
4/5 (4 votes)
American Honey lessons Tabs too difficult? Try these video lessons and learn fast
                -------------------------------------------------------------------------------
-------------------------------------------------------------------------------

Tuning: Low to High - C# G# C# F# G# C#

This is the real way to play it, and the more fun way!

Chords Used:

#1   #2    #3    #4     #5

0     0    0      0      0
0     0    0      0      0
7     7    4      0      6
0     0    0      0      0
0     0    0      2      0
0     9    5      2      7


Intro riff:

Harmonic on 12 to start, listen to strumming

|-+12----0-----0----0------------0----0-------------------------------------------|
|-+12----0-----0----0------------0----0-------------------------------------------|
|-+12----7-h-9-9-/-11-strum---h-9--\--7----------repeat--until -------------------|
|-+12----0-----0----0-----------0-----0-------------------------------------------|
|-+12----0-----0----0-----------0-----0-------------------------------------------|
|-+12----0-----0----0-----------0-----0-------------------------------------------|

Where the church bells ring, and strong love grows, she grew up good

|------------------0-----------------------------------0--------------------|
|------------------0-----------------------------------0--------------------|
|------------------7-----------------------------------4--------------------|
|------------------0-----------------------------------0--------------------|
|------------------0-----------------------------------0--------------------|
|------------------9-----------------------------------5--------------------|

She grew up slow, like american honey

|----------0---------0----0------0-----0--------------------------------------|
|----------0---------0----0------0-----0--------------------------------------|
|----------0---------9-h-11---h--9--\--7--------------------------------------|
|----------0---------0----0------0-----0--------------------------------------|
|----------2---------0----0------0-----0--------------------------------------|
|----------2---------0----0------0-----0--------------------------------------|

Chorus:

Theres a...    whisper..     growing in the..     wind

|------0------0--------0-------------0----------------------------------------|
|------0------0--------0-------------0----------------------------------------|
|------4------7--------7-------------6----------------------------------------|
|------0------0--------0-------------0----------------------------------------|
|------0------0--------0-------------0----------------------------------------|
|------5------0--------9-------------7----------------------------------------|

Skip the 007009 chord the next line of the chorus and come back to it the 3rd

Gone for so..long..now..somehow..

|-------0-----0-----0------0---------------0----------------------------------|
|-------0-----0-----0------0---------------0----------------------------------|
|-------7-----6-----4------0---------------7----------------------------------|
|-------0-----0-----0------0---------------0----------------------------------|
|-------0-----0-----0------2---------------0----------------------------------|
|-------9-----7-----5------2---------------0----------------------------------|

Play chorus chords and end on a 12th harmonic


************************************

| /   slide up
| \   slide down
| h   hammer-on
| p   pull-off
| ~   vibrato
| +   harmonic
| x   Mute note
| b   Bend
| pb  Pre-bend
| br  Bend release
| pbr Pre-bend release
| brb Bend release bend

************************************
            
Submit corrections

comments powered by Disqus
↑ Back to top | Lady Antebellum Tabs for American Honey. Lyrics for acoustic guitar and electric guitar. Tablatures and chords are parodies/interpretations of the original songs. You may use it for private study, scholarship, research or language learning purposes only