» » »

Lacuna Coil, No Need To Explain Tabs (ver.2)

Artists:  A B C D E F G H I J K L M N O P Q R S T U V W X Y Z # 

No Need To Explain Tabs (ver.2)

Lacuna Coil Tabs
Rating:
0/5 (0 votes)
No Need To Explain lessons Tabs too difficult? Try these video lessons and learn fast
                Band - Lacuna Coil
Album - Lacuna Coil
Song - No Need To Explain
Tuning - E - Low to High (EADGBe)

No clue on the intro, weird effect, sorry...

Verse
|-----------------|
|-----------------|
|-----------------|
|-7---------------|
|-5---8----3----5-|
|-----6----1----3-|

Pre-Chorus
|----------------|
|-----6-----6--6-|
|---7-----7---7--|
|----------------|
|-5-----5--------|
|----------------|

Chorus
|------------------------|
|------------------------|
|--7-7/\-5-5/\-----------|
|--------------7-7/\-8-8-|
|-5-5---3-3--------------|
|-------------5-5---6-6--|

Solo
|--------------------------------------|
|--------------------------------------|
|--7/9--10--7---7/9--10--7-----5---5---|
|--------------------------------------|
|--------------------------------------|
|--------------------------------------|

E|---------------------------------------------------------------------|
B|---------------------------------------------------------------------|
G|--7--7b--7---7/9--10--7----12--12---14--14----7----9p10--10--9--7--7-|
D|---------------------------------------------------------------------|
A|---------------------------------------------------------------------|
E|---------------------------------------------------------------------|
                                                     <~~~~~~~~~~~~~~~~~
E|----------------------------------------------------------------------|
B|----------------------------------------------------------------------|
G|-9p10--9p10--10--9--7-7--12--9p10--10--9--7--7--9p109p10--10-9--7-7-12|
D|----------------------------------------------------------------------|
A|----------------------------------------------------------------------|
E|----------------------------------------------------------------------|
  ~~~~~~~~~~~~~~~~~Tremolo~picking~~~~~~~~~~~~~~~~~~~~~~~~~~~~~~~~~~~~~~>

Bridge
|------------------------|
|------------------------|
|--7-7-9-9-10-10--12--12-|
|------------------------|
|-5-5-7-7-8--8--10--10---|
|------------------------|
            
Submit corrections

comments powered by Disqus
↑ Back to top | Lacuna Coil Tabs for No Need To Explain. Lyrics for acoustic guitar and electric guitar. Tablatures and chords are parodies/interpretations of the original songs. You may use it for private study, scholarship, research or language learning purposes only