» » »

No Need To Explain Tabs (ver.1)

Artists:  A B C D E F G H I J K L M N O P Q R S T U V W X Y Z # 

No Need To Explain Tabs (ver.1)

Lacuna Coil
Rating:
0/5 (0 votes)

Tabs too difficult? Try these video lessons and learn fast.
                No Need to Explain
Lacuna Coil

Intro                                        Riff A
E|---------------------------------------|   |--------------------------|
B|---------------------------------------|   |--------------------------|
G|-------2-----0-----------2-----0-------|   |--------------------------|
D|-5-----------------5-----------------5-|   |--7-----------------------|
A|---------------------------------------|   |--5-----8-----3-----5-----|
E|---------------------------------------|   |--------6-----1-----3-----|

Riff B                                       Riff C
E|---------------------------------------|   |--------------------------|
B|---------------------------------------|   |--------------------------|
G|---------------------------------------|   |--------------------------|
D|-7---7---------------------------------|   |--------------------------|
A|-5---5---8---8-----3/5--5--5--5--5--5--|   |--3--3--3--3--3--3--3--3--|
E|----------6---6----1/3--3--3--3--3--3--|   |--1--1--1--1--1--1--1--1--|

Riff D                          Riff E
E|--------------------------|  |------------------------------------|
B|--------------------------|  |------------------------------------|
G|--------------------------|  |--7-7-7-7-5-5-5-5-------------------|
D|--------------------------|  |-------------------7-7-7-7-8-8-8-8--|
A|--5--5--5--5--5--5--5--5--|  |--5-5-5-5-3-3-3-3-------------------|
E|--3--3--3--3--3--3--3--3--|  |-------------------5-5-5-5-6-6-6-6--|

Riff F                          Solo
E|---------------------------| |--------------------------------------|
B|---------------------------| |--------------------------------------|
G|-----7-----7-----7-----7---| |--7/9--10--7---7/9--10--7-----5---5---|
D|---------------------------| |--------------------------------------|
A|--5-----5-----5-----5------| |--------------------------------------|
E|---------------------------| |--------------------------------------|

E|---------------------------------------------------------------------|
B|---------------------------------------------------------------------|
G|--7--7b--7---7/9--10--7----12--12---14--14----7----9p10--10--9--7--7-|
D|---------------------------------------------------------------------|
A|---------------------------------------------------------------------|
E|---------------------------------------------------------------------|

E|----------------------------------------------------------------------|
B|----------------------------------------------------------------------|
G|-9p10--9p10--10--9--7-7--12--9p10--10--9--7--7--9p109p10--10-9--7-7-12|
D|----------------------------------------------------------------------|
A|----------------------------------------------------------------------|
E|----------------------------------------------------------------------|

Riff G               Riff H
E|----------------| |---------------------------------------------------|
B|----------------| |---------------------------------------------------|
G|----------------| |-7--7--7--7--9--9--9--9--10-10-10--12---12--12--12-|
D|--7---5---------| |---------------------------------------------------|
A|--5---3---3---5-| |-5--5--5--5--7--7--7--7---8--8--8--10---10--10--10-|
E|----------1---3-| |---------------------------------------------------|

Riff I
E|-----|
B|-----|
G|-----|
D|--7--|
A|--5--|
E|-----|

Orden
Ax4
Bx3
Cx2
Dx2
Cx2
Dx2
Ex4
Fx3
Solo
Cx2
Dx2
Cx2
Dx2
Ex4
Gx4
Hx4
Fx8
Ix1
            
Tabs too difficult? Try these video lessons and learn fast.




comments powered by Disqus
↑ Back to top | Tablatures and chords are parodies/interpretations of the original songs. You may use it for private study, scholarship, research or language learning purposes only