» » »

Lacuna Coil, My Wings Tabs (ver.3)

Artists:  A B C D E F G H I J K L M N O P Q R S T U V W X Y Z # 

My Wings Tabs (ver.3)

Lacuna Coil Tabs
Rating:
0/5 (0 votes)
My Wings lessons Tabs too difficult? Try these video lessons and learn fast
                
tuning: B E A D F# B

THE OTHER VERSIONS TABBED DIDN'T SOUND RIGHT, SO I 
WROTE THIS ONE. I DON'T KNOW IF THEY PLAY IN B TUNING OR 
NOT BUT IT SOUNDS EXACT SO, ENJOY!! :-)

OPENING RIFF/ VERSES{ALL}

B |--------------------------------------------------------------------------------------|
F#|--------------------------------------------------------------------------------------|
D |--------------------------------------------------------------------------------------|
A |5-5-5-55-55-55-555--7-7-7-77-77-77-777--8-8-8-88-88-888-10-10-10-1010-1010-1010-101010|
E |5-5-5-55-55-55-555--7-7-7-77-77-77-777--8-8-8-88-88-888-10-10-10-1010-1010-1010-101010|
B |3-3-3-33-33-33-333--5-5-5-55-55-55-555--6-6-6-66-66-666--8--8--8--8-8--8-8--8-8--8-8-8|
  ^ ^ ^ ^V ^V ^v ^v^  ^ ^ ^ ^V ^V ^V ^V^  ^ ^ ^ ^V ^V ^V^  ^  ^  ^  ^ V  ^ V  ^ V  ^ V ^

CHORUS {i play this part with all downstrokes. it gives it a heavier feel}
B |-----------------------------------|
F#|-----------------------------------|
D |---------7-7-7---------------------|
A |5-5-5-5--7-7-7--8-8-8-8--6-6-6-----|
E |5-5-5-5--5-5-5--8-8-8-8--6-6-6-----|
B |3-3-3-3---------6-6-6-6--4-4-4-----|
  ^ ^ ^ ^  ^ ^ ^  ^ ^ ^ ^  ^ ^ ^    

LITTLE BRIDGE TYPE PART {APPOX.3:06}

B |-----------------------|
F#|-----------------------|
D |7-7-7-77-77-77-777-----|
A |7-7-7-77-77-77-777-----|
E |5-5-5-55-55-55-555-----|
B |-----------------------|
  ^ ^ ^ ^V ^V ^v ^v^
            

comments powered by Disqus
↑ Back to top | Lacuna Coil Tabs for My Wings. Lyrics for acoustic guitar and electric guitar. Tablatures and chords are parodies/interpretations of the original songs. You may use it for private study, scholarship, research or language learning purposes only