» » »

Lacuna Coil, My Wings Tabs (ver.2)

Artists:  A B C D E F G H I J K L M N O P Q R S T U V W X Y Z # 

My Wings Tabs (ver.2)

Lacuna Coil Tabs
 Rating:
4/5 (4 votes)
My Wings lessons Tabs too difficult? Try these video lessons and learn fast
                Band - Lacuna Coil
Album - In A Reverie
Song - My Wings
Tuning - B-7 - Low to High (BEADGbe)

Gtr.1
e|----------------------------------------------------------------|
b|----------------------------------------------------------------|
G|7-7-7---7---7-7---7-7---7-7-7-7-7-7-7---7---7-7---7-7---7-7-7-7-|
D|7-7-7---7---7-7---7-7---7-7-7-7-7-7-7---7---7-7---7-7---7-7-7-7-|
A|5-5-5---5---5-5---5-5---5-5-5-5-5-5-5---5---5-5---5-5---5-5-5-5-|
E|----------------------------------------------------------------|
B|----------------------------------------------------------------|

e|----------------------------------------------------------------|
b|----------------------------------------------------------------|
G|7-7-7---7---7-7---7-7---7-7-7-7-7-7-7---7-7-7---7-7-7---7-7-7---|
D|7-7-7---7---7-7---7-7---7-7-7-7-7-7-7---7-7-7---7-7-7---7-7-7---|
A|5-5-5---5---5-5---5-5---5-5-5-5-5-5-5---5-5-5---5-5-5---5-5-5---|
E|----------------------------------------------------------------|
B|----------------------------------------------------------------|

Gtr.2 Verse Fig.1
e|----------------------------------------------|
b|----------------------------------------------|
G|----------------------------------------------|
D|----------------------------------------------|
A|------7----3----5-5-5---5-5-5---5-5-5---5-5-5-|
E|-5----5----1----3-3-3---3-3-3---3-3-3---3-3-3-|
B|-3--------------------------------------------|

Gtr.2 Verse fig.2
e|--------------------|
b|--------------------|
G|--------------------|
D|-7----9-------------|
A|-5----7-----8----10-|
E|------------6----8--|
B|--------------------|

Gtr.1 Chorus
e|----------------------------------------------------------------|
b|----------------------------------------------------------------|
G|----------------------------------------------------------------|
D|7-----7-------------------3-----7-----7---------3-----3---------|
A|5-----5---7-----3-----3---1-----5-----5---7-----1-----1---------|
E|----------5-----1-----1-------------------5---------------6-----|
B|----------------------------------------------------------4-----|

Gtr.2 Chorus
e|-------------------------------------------------------------|
b|-------------------------------------------------------------|
G|---7---7---5-------9---9---5------7---7---5-------9---9---10-|
D|-------------------------------------------------------------|
A|-5---5---5-------8---8---8------5---5---5-------8---8---8----|
E|-------------------------------------------------------------|
B|-------------------------------------------------------------|

Gtr.2 Bridge
e|---------------------------------|
b|---------------------------------|
G|---2---2---2---2---2---2---2---2-|
D|---------------------------------| 2x
A|-0---0---0---0---0---0---0---0---|
E|---------------------------------|
B|---------------------------------|
            
Submit corrections

comments powered by Disqus
↑ Back to top | Lacuna Coil Tabs for My Wings. Lyrics for acoustic guitar and electric guitar. Tablatures and chords are parodies/interpretations of the original songs. You may use it for private study, scholarship, research or language learning purposes only