» » »

Lacuna Coil, Heir Of A Dying Day Bass tabs (ver.2)

Artists:  A B C D E F G H I J K L M N O P Q R S T U V W X Y Z # 

Heir Of A Dying Day Bass tabs (ver.2)

Lacuna Coil Tabs
 Rating:
4/5 (4 votes)
Heir Of A Dying Day lessons Tabs too difficult? Try these video lessons and learn fast
                Chorus:
|----------|
|----------|
|------3-2-| 4x
|-3-4------|
|----------|

Verse1:
|------------|
|------------|
|------33--2-| 4x
|-33-4-------|
|------------|

|---------------------|
|---------------------|
|-----------3-33-2-22-| 4x
|-3-33-4-44-----------|
|---------------------|

Chorus 8x

Interlude1 (No bass playing)

Verse2:
|---------------------|
|---------------------|
|-----------3-33-2-22-| 4x
|-3-33-4-44-----------|
|---------------------|

|---------------------|
|---------------------|
|------------------23-| 4x
|-333-33333-333-333---|
|---------------------|

Chorus 8x

Interlude2:
|--------------------------|
|--------------------------|
|--------------------------| 4x
|-3--/10\-6--78-8-01-2/3/4-|
|--------------------------|

|---------|
|---------|
|-----3-2-| 4x
|-3-4-----|
|---------|

Chorus 20x
            
Submit corrections

comments powered by Disqus
↑ Back to top | Lacuna Coil Bass for Heir Of A Dying Day. Lyrics for acoustic guitar and electric guitar. Tablatures and chords are parodies/interpretations of the original songs. You may use it for private study, scholarship, research or language learning purposes only