» » »

Lacuna Coil, Heir Of A Dying Day Tabs (ver.1)

Artists:  A B C D E F G H I J K L M N O P Q R S T U V W X Y Z # 

Heir Of A Dying Day Tabs (ver.1)

Lacuna Coil Tabs
 Rating:
4/5 (4 votes)
Heir Of A Dying Day lessons Tabs too difficult? Try these video lessons and learn fast
1
                This is as accurate as I can get it. Enjoy!

Intro
E|--------------------------------------||
B|--------------------------------------||
G|--------------------------------------||
D|-----0------0------------0-------0----||
A|--------------------------------------||
E|--3----3-4-----4---6--6-----5--5---5/-||

E|--------------------------------------||
B|--------------------------------------||
G|-----0------0------------0-------0----||
D|--------------------------------------||
A|--------------------------------------||
E|--3----3-4-----4---8--8-----7--7---7\-||

E|--------------------------------------||
B|--------------------------------------||
G|--------------------------------------||
D|--5--------6----------10--------9-----||
A|--5--------6----------10--------9-----||
E|--3--------4----------8---------7-----||

E|--------------------------------------||
B|--------------------------------------||
G|-0--0--0--0--0--0--0--0--0--0--0--0--0||
D|--------------------------------------||
A|--------------------------------------||
E|--------------------------------------||

Interlude
Guitar I                              
E|-------------------------------------------|
B|-------------------------------------------|
G|-------------------------------------------|
D|-------------------------------------------|
A|--/5----5----------------------------------|
E|-----------3----3--1----1--/6----6-5----5--|

Guitar II
E|--------------------------------------------|
B|--------------------------------------------|
G|--/7----7-----------------------------------|
D|-----------8----8-----7----7--7h8p7\5----5--|
A|-------------------8------------------------|
E|--------------------------------------------|

E|-------------------------------------------|
B|-------------------------------------------|
G|--/7----7--0---------------------0---------|
D|-----------8----8----10----10----7----7----|
A|-------------------------------------------|
E|-------------------------------------------|

Prechorus
E|----------------------|
B|----------------------|
G|----------------------|
D|--5----6----10---9----|
A|----------------------|
E|--3----4----8----7----|

Outro (4:27)
E|-------------------------------------------------------------------------------|
B|----------8--------------8--------------8--------------8--------------8--------|
G|--0----5-----7--7--0--5-----7--7--0--5-----0--7--0--5-----0--7--0--5-----0--7--|
D|-------------------------------------------------------------------------------|
A|-------------------------------------------------------------------------------|
E|-------------------------------------------------------------------------------|

E|-----------------------------------------------------------------------------|
B|--------8--------------8--------------8--------------8--------------8--------|
G|--0--5-----0--7--0--5-----5--7--0--5-----5--7--0--5-----5--7--0--5-----5--7--|
D|-----------------------------------------------------------------------------|
A|-----------------------------------------------------------------------------|
E|-----------------------------------------------------------------------------|

E|--------------------------------------------------------------------------|
B|--------8--------------8--------------8-----------8--------------8--------|
G|--0--5-----5--7--0--5-----5--7--0--5-----7--0--5-----0--7--0--5-----0--7--|
D|--------------------------------------------------------------------------|
A|--------------------------------------------------------------------------|
E|--------------------------------------------------------------------------|

E|----------------------------------------------------------------------------|
B|--------8--------------8--------------8-------------8--------------8--------|
G|--0--5-----0--7--0--5-----0--7--0--5-----0--7-0--5-----0--7--0--5-----0--7--|
D|----------------------------------------------------------------------------|
A|----------------------------------------------------------------------------|
E|----------------------------------------------------------------------------|

E|--------------------------------------------------------------------------------------|
B|--------8--------------8--------------8--------------8--------------8--------------8--|
G|--0--5-----0--7--0--5-----0--7--0--5-----0--7--0--5-----0--7--0--5-----0--7--0--5-----|
D|--------------------------------------------------------------------------------------|
A|--------------------------------------------------------------------------------------|
E|--------------------------------------------------------------------------------------|

Feel free to comment.
            
Submit corrections

comments powered by Disqus
↑ Back to top | Lacuna Coil Tabs for Heir Of A Dying Day. Lyrics for acoustic guitar and electric guitar. 1 Tablatures and chords are parodies/interpretations of the original songs. You may use it for private study, scholarship, research or language learning purposes only