» » »

Lacuna Coil, Heaven's A Lie Tabs (ver.2)

Artists:  A B C D E F G H I J K L M N O P Q R S T U V W X Y Z # 

Heaven's A Lie Tabs (ver.2)

Lacuna Coil Tabs
 Rating:
4/5 (4 votes)
Heaven's A Lie lessons Tabs too difficult? Try these video lessons and learn fast
                Lacuna Coil
Heavens A Lie


I saw other tabs to this song and they suck, Lacuna Coil uses 7-string guitars.


tuning  
B E A D G B E


intro  

guitar 1
  E----------------------------------------------------------------|
  B----------------------------------------------------------------|
  G----11h12-12-11-9--11h12-11-9//14-14-14-14----------------------|
  D----------------------------------------------------------------|
  A----------------------------------------------------------------|
  E----------------------------------------------------------------|
  B----------------------------------------------------------------|

    main/chorus     guitar 2
  E---------------------------------------------------------------------|  
  B---------------------------------------------------------------------|
  G---------------------------------------------------------------------|
  D--2-------------7----5-/---7-------2---------7--5----4---------------|
  A--2------3------7----5-/---7-------2----3----7--5----4---------------|
  E--0------3------5----3-/---5-------0----3----5--3----2---------------|
  B---------1------------------------------1----------------------------|

   verse    both guitars
  E----------------------------------------------------------------------|
  B----------------------------------------------------------------------|
  G----------------------------------------------------------------------|
  D------2-2-2-2-2-------------------7-7-7-7-7---5-5-5-5-5---7-7-7-------|
  A------2-2-2-2-2---3-3-3-3-3-------7-7-7-7-7---5-5-5-5-5---7-7-7-------|
  E------0-0-0-0-0---3-3-3-3-3-------5-5-5-5-5---3-3-3-3-3---5-5-5-------|
  B------------------1-1-1-1-1-------------------------------------------|
    pm   . . . . .   . . . . .       . . . . .   . . . . .   . . 
  
  E----------------------------------------------------------------------|  
  B----------------------------------------------------------------------|
  G----------------------------------------------------------------------|
  D------2-2-2-2-2-------------------7-7-7-7-7---5-5-5-5-5---6-6-6-------|
  A------2-2-2-2-2---3-3-3-3-3-------7-7-7-7-7---5-5-5-5-5---6-6-6-------|
  E------0-0-0-0-0---3-3-3-3-3-------5-5-5-5-5---3-3-3-3-3---4-4-4-------|
  B------------------1-1-1-1-1-------------------------------------------|
    pm   . . . . .   . . . . .       . . . . .   . . . . .   . . 


     pre chors/ break
   both guitars
   E----------------------------------------------------------------------|
   B----------------------------------------------------------------------|
   G----11-12-12-12-12-12-11--11-12-12-12-12-12-11-9----------------------|
   D----------------------------------------------------------------------|
   A----9//10-10-10-10-10p9---9//10-10-10-10-10p9//7----------------------|
   E----------------------------------------------------------------------|
   B----------------------------------------------------------------------|

   E----------------------------------------------------------------------|
   B----------------------------------------------------------------------|
   G----11-12-12-12-12-12-11--11-12-12-12-12-12--14-----------------------|
   D----------------------------------------------------------------------|
   A----9//10-10-10-10-10p9---9//10-10-10-10-10//12-----------------------|
   E----------------------------------------------------------------------|
   B----------------------------------------------------------------------|

      song order

      intro
      main/chors riff (guitar 1)and intro(guitar 2)
      verse
      pre chors/ break
      main/chors riff (guitar 1)and intro(guitar 2)
      verse
      pre chors/ break
      main/chors riff (guitar 1)and intro(guitar 2)
      pre chors/break
      main riff/chors (guitar 1)and intro(guitar 2)
            
Submit corrections

comments powered by Disqus
↑ Back to top | Lacuna Coil Tabs for Heaven's A Lie. Lyrics for acoustic guitar and electric guitar. Tablatures and chords are parodies/interpretations of the original songs. You may use it for private study, scholarship, research or language learning purposes only