» » »

Lacuna Coil, Heaven's A Lie Tabs (ver.1)

Artists:  A B C D E F G H I J K L M N O P Q R S T U V W X Y Z # 

Heaven's A Lie Tabs (ver.1)

Lacuna Coil Tabs
 Rating:
4/5 (4 votes)
Heaven's A Lie lessons Tabs too difficult? Try these video lessons and learn fast
1
                
Tuning E
Tuning: E-A-D-G-B-e

Legends:
. - palm mute
/ - slide
~ - repeat

00:00
Intro:          (low volume first)
|-----------------------------------------------------|
|---------------------------------------10-10-10-10---|
|-11/12-12-12-11-9-9-11/12-12-12-11-9-9---------------|
|-----------------------------------------------------|
|-----------------------------------------------------|
|-----------------------------------------------------|

00:17           (followed by other instruments)

00:45
Verse1:
|-----------------------------------------------------|
|-----------------------------------------------------|
|-----------------------------------------------------|
|------------5-5-5-5-5--------------------------------|
|-2-2-2-2-2--3-3-3-3-3----7-7-7-7-7--5-5-5-5-5--4-4-4-|
|-0-0-0-0-0---------------5-5-5-5-5--3-3-3-3-3--2-2-2-|
  . . . . .  . . . . .    . . . . .  . . . . .  . . .


01:12
Pre-Chorus:
~
|--------------------------------|
|--------------------------------|
|--------------------------------|
|--------------------------------|
|-7-7-77-10-8----7-7-7-77-10-8-7-|
|--------------------------------|

|---------------------------------|
|---------------------------------|
|---------------------------------|
|-------------------------7-7-7-7-|
|-7-7-77-10-8----7-7-7-77---------|
|---------------------------------|
~

01:27
Chorus:
|-----------------------------------------------------|
|---------------------------------------10-10-10-10---|
|-11/12-12-12-11-9-9-11/12-12-12-11-9-9---------------|
|-----------------------------------------------------|
|-----------------------------------------------------|
|-----------------------------------------------------|

02:09
Verse2:
|-----------------------------------------------------|
|-----------------------------------------------------|
|-----------------------------------------------------|
|------------5-5-5-5-5--------------------------------|
|-2-2-2-2-2--3-3-3-3-3----7-7-7-7-7--5-5-5-5-5--4-4-4-|
|-0-0-0-0-0---------------5-5-5-5-5--3-3-3-3-3--2-2-2-|
  . . . . .  . . . . .    . . . . .  . . . . .  . . .

02:36
Pre-Chorus:
~
|--------------------------------|
|--------------------------------|
|--------------------------------|
|--------------------------------|
|-7-7-77-10-8----7-7-7-77-10-8-7-|
|--------------------------------|

|---------------------------------|
|---------------------------------|
|---------------------------------|
|-------------------------7-7-7-7-|
|-7-7-77-10-8----7-7-7-77---------|
|---------------------------------|
~

02:51
Chorus:
|-----------------------------------------------------|
|---------------------------------------10-10-10-10---|
|-11/12-12-12-11-9-9-11/12-12-12-11-9-9---------------|
|-----------------------------------------------------|
|-----------------------------------------------------|
|-----------------------------------------------------|

03:19
Bridge?... whatsoever...
~
|--------------------------------|
|--------------------------------|
|--------------------------------|
|--------------------------------|
|-7-7-77-10-8----7-7-7-77-10-8-7-|
|--------------------------------|

|---------------------------------|
|---------------------------------|
|---------------------------------|
|-------------------------7-7-7-7-|
|-7-7-77-10-8----7-7-7-77---------|
|---------------------------------|
~

04:00
Chorus:
|-----------------------------------------------------|
|---------------------------------------10-10-10-10---|
|-11/12-12-12-11-9-9-11/12-12-12-11-9-9---------------|
|-----------------------------------------------------|
|-----------------------------------------------------|
|-----------------------------------------------------|
       (last chorus plays until the song ends)


any of these are welcome :) enjoy!
            
Submit corrections

comments powered by Disqus
↑ Back to top | Lacuna Coil Tabs for Heaven's A Lie. Lyrics for acoustic guitar and electric guitar. 1 Tablatures and chords are parodies/interpretations of the original songs. You may use it for private study, scholarship, research or language learning purposes only